Guitar Tabs for Neele Neele Ambar Par

(/) Slide Up  (\) Slide Down  (h) Hammer On  (p) Pull Off  (b) Bend (r) Release (v) Vibrato (x) Muted

Tabs for Song : 

Song lyrics here
E|--
B|--
G|--
D|--
A|--
E|--

Song lyrics here
E|--
B|--
G|--
D|--
A|--
E|--

Paste any tab in acousterr's tab maker and we'll play it !!!
Now supports capo and sound effects for vibrato/pull-off/hammer/bends/mutes etc !!! Checkout help section
[Intro]
e|----------------------------------------------------------------------------|
B|--------------------------------------------------2-------------------------|
G|-----2--3--2--3--2--0--2--0-----0-----------------0-------------------------|
D|--0--------------------------3-----3--2--3--2--0----------------------------|
A|----------------------------------------------------------------------------|
E|----------------------------------------------------------------------------|


Neele neele ambar par
e|-------------------------------------------------------------------|
B|--5--6--5--6--5--6--5----------------------------------------------|
G|-------------------------------------------------------------------|
D|-------------------------------------------------------------------|
A|-------------------------------------------------------------------|
E|-------------------------------------------------------------------|

Chand jab aye
e|-------------------------------------------------------------------|
B|-----5--6--5-----5--6----------------------------------------------|
G|--7-----------7----------------------------------------------------|
D|-------------------------------------------------------------------|
A|-------------------------------------------------------------------|
E|-------------------------------------------------------------------|

Pyar barsaye
e|----------------------------------------------------------------------|
B|--------5--6---6/8---8/10--8/5--5-------------------------------------|
G|--5--7----------------------------------------------------------------|
D|----------------------------------------------------------------------|
A|----------------------------------------------------------------------|
E|----------------------------------------------------------------------|

Humko tarsaye
e|--------------------5----------------------------------------------|
B|--6--5--6--5--6--5--5----------------------------------------------|
G|--------------------6----------------------------------------------|
D|--------------------7----------------------------------------------|
A|--------------------7----------------------------------------------|
E|--------------------5----------------------------------------------|

Aisa koi saathi ho
e|---------------------8/10------------------------------------------|
B|-----5--6--8---8/10------------------------------------------------|
G|--7----------------------------------------------------------------|
D|-------------------------------------------------------------------|
A|-------------------------------------------------------------------|
E|-------------------------------------------------------------------|


Aisa koi premi ho
e|--------------8--10/12---------------------------------------------|
B|--5--6--8--10------------------------------------------------------|
G|-------------------------------------------------------------------|
D|-------------------------------------------------------------------|
A|-------------------------------------------------------------------|
E|-------------------------------------------------------------------|


Pyaas dil ki bhuja jaye
                        A
e|----------------------------------------------------------------------|
B|--5--6--8--6--8--6--8--6----------------------------------------------|
G|----------------------------------------------------------------------|
D|----------------------------------------------------------------------|
A|----------------------------------------------------------------------|
E|----------------------------------------------------------------------|

         Dm
e|----------------------------------------------------------------------------------|
B|----------------------------------------------------------------------------------|
G|--------------------------0-----------------------------------0-------------------|
D|-----------0--2--0--0--2-----3--2--0-----0-----0--2--0--0--2-----3--2--0-----0----|
A|--12/5--0-----------------------------3-----0-----------------------------3-------|
E|----------------------------------------------------------------------------------|

   Dm       C         Bb                Dm
e|-------------------------------------------------------------------------|
B|-------------------------------------------------------------------------|
G|--7--10-9--7-----9--7----------------------------------------------------|
D|--------------10-------10-7--10-8--7-------------------------------------|
A|--------------------------------------10-8--7--8--5----------------------|
E|-------------------------------------------------------------------------|

tabs and chords, guitar tabs, music transcription, music technology, deep learning, music information retrieval, transcribe into tabs & chords, chordify, music renditions, songsterr, reverbnation, tabulature, bollywood chords, ultimate guitar, yousician, guitar lessons, acoustic guitar, electric guitar, guitar tuner, 911 tabs