Guitar Tabs for Neele Neele Ambar Par - Tabs

Tabs for Song : neele neele amber mein

neele neeleamber pe
E|--------------------------
B|--------------------------
G|--------2-----0--0--------
D|--0--3-----3--------2-----
A|--------------------------
E|--------------------------

chaand jab chaye
E|--------------------------
B|--------------------------
G|--------0-----------------
D|-----2-----2--3--3--0-----
A|--3-----------------------
E|--------------------------

pyaar barsaaye
E|--------------------------
B|--------------------------
G|--------2-----0--0--------
D|--0--3-----3--------2-----
A|--------------------------
E|--------------------------

humko tarsaaye
E|--------------------------
B|--------------------------
G|--------0-----------------
D|-----2-----2--3--3--0-----
A|--3-----------------------
E|--------------------------

aisa koi saathi ho
E|--------------------------
B|--------------3--3--3-----
G|-----------2--------------
D|--0--0--3-----------------
A|--------------------------
E|--------------------------

aisa koi premi ho
E|--------------------------
B|--------------1--1--1-----
G|-----------2--------------
D|--3--0--3-----------------
A|--------------------------
E|--------------------------

pyaas dil ki bujha jaye
E|--------------------------------
B|--------1-----------------------
G|-----2-----3--3--3--5--3--2-----
D|--3-----------------------------
A|--------------------------------
E|--------------------------------



tabs and chords, guitar tabs, music contests, music covers, songsterr, reverbnation, renditions, tabulature, bollywood chords, ultimate guitar, yousician, guitar lessons, torrins, fender, gibson, acoustic guitar, electric guitar, youtube covers, gootar, guitar tuner, A-Z tabs, 911 tabs