Guitar Tabs for Nee Madhu Pakaroo

(/) Slide Up  (\) Slide Down  (h) Hammer On  (p) Pull Off  (b) Bend (r) Release (v) Vibrato (x) Muted

Tabs for Song : 
BPM : 200


E|--2--2--------2--2--0--0--------2--------2--2--0--0-----0--0---3/5--3--2--0--2--3--2--
B|--3-----3--3--------2-----------3--3--3--------2--------------------------------------
G|--2-----------------2-----------2--------------2--------------------------------------
D|--0--2--0--2--
A|-----0-----0--
E|--------------

Song lyrics here
E|--2--12-12-12\5--5--5---5\3--3--3--3--3--2--0--3--2--
B|-----------------------------------------------------
G|-----------------------------------------------------
D|-----------------------------------------------------
A|-----------------------------------------------------
E|-----------------------------------------------------

E|--
B|--
G|--
D|--
A|--
E|--

Paste any tab in acousterr's tab maker and we'll play it !!!
Now supports capo and sound effects for vibrato/pull-off/hammer/bends/mutes etc !!! Checkout help section
tabs and chords, guitar tabs, music transcription, music technology, deep learning, music information retrieval, transcribe into tabs & chords, chordify, music renditions, songsterr, reverbnation, tabulature, bollywood chords, ultimate guitar, yousician, guitar lessons, acoustic guitar, electric guitar, guitar tuner, 911 tabs