Guitar Tabs for Natalie Merchant - Carnival 30-60

(/) Slide Up  (\) Slide Down  (h) Hammer On  (p) Pull Off  (b) Bend (r) Release (v) Vibrato (x) Muted

Tabs & Chords
BPM : 93.0
Check Track 2 for Chord Positions 

             Dm          A        F#m                                 E                       
E|--------------------------------------------------------0--------------------4--5--4--4--5--
B|--------------------------------0--------6--6-----0--------------6--6-----6-----------------
G|--------------------------------------6--------------6-----6--------------------------------
D|--7-----------------------4-----------------------------------------------------------------
A|-----7--7--6--6--6--6--7--------------------------------------------------------------------
E|--------------------------------------------------------------------------------------------

                                     A              D                             F#m            
E|--4--5--4-----0-----0--0-----------0--------0--------0-----------------------------------------
B|-----------------6--------------------------------6-----------0-----------6-----6-----------0--
G|-----------------------------0--6-----6--6-----------------5-----------------------------------
D|--------------------------------------------------------------------4--7--------------7--------
A|-----------------------------------------------------------------------------------8-----------
E|--------------------------0--------------------------------------------------------------------

                                                                               E           
E|-----------------------------5--------------------------------------------------------0--
B|--0--0-----------------------------6-----0--------------0--------6--------0--0-----6-----
G|--------5--6--6--6--6-----6-----------------6--6--6--------6-----------------------------
D|-----------------------------------------------------------------------7-----------------
A|-----------------------------------------------------------------------------------------
E|-----------------------------------------------------------------------------------------

Guitar Tabs for Natalie Merchant - Carnival 30-60






             Dm          A        F#m                                 E                       
E|-----------1-----------0--------2-----------------------------------0-----------------------
B|-----------3-----------2--------2-----------------------------------0-----------------------
G|-----------2-----------2--------2-----------------------------------1-----------------------
D|-----------0-----------2--------4-----------------------------------2-----------------------
A|-----------------------0--------4-----------------------------------2-----------------------
E|--------------------------------2-----------------------------------0-----------------------

                                     A              D                             F#m            
E|-----------------------------------0--------------2-----------------------------2--------------
B|-----------------------------------2--------------3-----------------------------2--------------
G|-----------------------------------2--------------2-----------------------------2--------------
D|-----------------------------------2--------------0-----------------------------4--------------
A|-----------------------------------0--------------------------------------------4--------------
E|--------------------------------------------------------------------------------2--------------

                                                                               E           
E|-----------------------------------------------------------------------------0-----------
B|-----------------------------------------------------------------------------0-----------
G|-----------------------------------------------------------------------------1-----------
D|-----------------------------------------------------------------------------2-----------
A|-----------------------------------------------------------------------------2-----------
E|-----------------------------------------------------------------------------0-----------

tabs and chords, guitar tabs, music transcription, music technology, deep learning, music information retrieval, transcribe into tabs & chords, chordify, music renditions, songsterr, reverbnation, tabulature, bollywood chords, ultimate guitar, yousician, guitar lessons, acoustic guitar, electric guitar, guitar tuner, 911 tabs