Guitar Tabs for Carnival - Natalie Merchant

(/) Slide Up  (\) Slide Down  (h) Hammer On  (p) Pull Off  (b) Bend (r) Release (v) Vibrato (x) Muted

Tabs & Chords
BPM : 93.0
Check Track 2 for Chord Positions 

          F#m            F#          Bm       F#m   F#       B                       F#       
E|--------1-----1--1-----1--1--1-----1--1-----1-----1--1-----1-----1-----1-----1--------------
B|--1-----------------------------------------------------------------------------------------
G|--------------------------------------------------------------------------------------------
D|--------------------------------------------------------------------------------------------
A|--------------------------------------------------------------------------------3--3--3--4--
E|--------------------------------------------------------------------------------------------

                                              B           F#m      F#m                        
E|-----------------1--1--------------------------------------1-----1-----1-----1--1-----1--1--
B|--------------------------------------------------------------------------------------------
G|--------------------------------------------------------------------------------------------
D|--------------------------------2--2--------------------------------------------------------
A|--3--2--4-----2-----------4--4--------------2-----3--1--------------------------------------
E|-----------0--------------------------2-----------------2-----------------------------------

       Am       F#m         A  
E|-----1--1-----1--1-----------
B|-----------------------------
G|--------------------------2--
D|--------------------1--2-----
A|-----------------------------
E|-----------------------------

Guitar Tabs for Carnival - Natalie Merchant






          F#m            F#          Bm       F#m   F#       B                       F#       
E|--------2--------------2-----------2--------2-----2--------2-----------------------2--------
B|--------2--------------2-----------3--------2-----2--------4-----------------------2--------
G|--------2--------------3-----------4--------2-----3--------4-----------------------3--------
D|--------4--------------4-----------4--------4-----4--------4-----------------------4--------
A|--------4--------------4-----------2--------4-----4--------2-----------------------4--------
E|--------2--------------2--------------------2-----2--------------------------------2--------

                                              B           F#m      F#m                        
E|--------------------------------------------2-----------2--------2--------------------------
B|--------------------------------------------4-----------2--------2--------------------------
G|--------------------------------------------4-----------2--------2--------------------------
D|--------------------------------------------4-----------4--------4--------------------------
A|--------------------------------------------2-----------4--------4--------------------------
E|--------------------------------------------------------2--------2--------------------------

       Am       F#m         A  
E|-----0--------2-----------0--
B|-----1--------2-----------2--
G|-----2--------2-----------2--
D|-----2--------4-----------2--
A|-----0--------4-----------0--
E|--------------2--------------

tabs and chords, guitar tabs, music transcription, music technology, deep learning, music information retrieval, transcribe into tabs & chords, chordify, music renditions, songsterr, reverbnation, tabulature, bollywood chords, ultimate guitar, yousician, guitar lessons, acoustic guitar, electric guitar, guitar tuner, 911 tabs