Guitar Tabs for Mystiq - Bob Chicken Moose


E|--------------
B|-----------1--
G|--------0-----
D|-----2--------
A|--3-----------
E|--------------

E|--------------
B|-----------1--
G|--------2-----
D|-----2--------
A|--0-----------
E|--------------


E|--------------
B|--------------
G|-----------0--
D|--------2-----
A|-----2--------
E|--0-----------




tabs and chords, guitar tabs, music transcription, music technology, deep learning, music information retrieval, transcribe into tabs & chords, chordify, music renditions, songsterr, reverbnation, tabulature, bollywood chords, ultimate guitar, yousician, guitar lessons, acoustic guitar, electric guitar, guitar tuner, 911 tabs