Guitar Tabs for Bob Esponja

(/) Slide Up  (\) Slide Down  (h) Hammer On  (p) Pull Off  (b) Bend (r) Release (v) Vibrato (x) Muted

Tabs for Song : 

Song lyrics here

E|--------------------7-----
B|--7--6--7--9--7--------7--
G|--------------------------
D|--------------------------
A|--------------------------
E|--------------------------

E|--------------------7--7--
B|--7--6--7--9--7-----------
G|--------------------------
D|--------------------------
A|--------------------------
E|--------------------------

E|--9--11-9--11-9-----7--7-----7--9--10-10----10-10----10-9--7--------
B|--------------------------------------------------------------8--7--
G|--------------------------------------------------------------------
D|--------------------------------------------------------------------
A|--------------------------------------------------------------------
E|--------------------------------------------------------------------

E|--------------------6--7--
B|--7--9--7--9--7-----------
G|--------------------------
D|--------------------------
A|--------------------------
E|-----------------------------



Song lyrics here
E|--
B|--
G|--
D|--
A|--
E|--

Paste any tab in acousterr's tab maker and we'll play it !!!
Now supports capo and sound effects for vibrato/pull-off/hammer/bends/mutes etc !!! Checkout help section
tabs and chords, guitar tabs, music transcription, music technology, deep learning, music information retrieval, transcribe into tabs & chords, chordify, music renditions, songsterr, reverbnation, tabulature, bollywood chords, ultimate guitar, yousician, guitar lessons, acoustic guitar, electric guitar, guitar tuner, 911 tabs