My Last Words - Megadeth - Bass Tabs

Ellefson (Bass)
    
                                                                                                                                                                                                                                                                                                                                                                                                                                                                                                                                                                                                                                                                                                                                                                                                                                                                                                                                                                                                                                                                                                                                                                                              
G|-------------------------|-----------------------|
D|--12---------------------|(9)--------------------|
A|-------------------------|11---------------------|
E|-------------------------|-----------------------|

    
                                                                                                                                                                                                                                                                                                                                                                                                                                                                                                                                                                                                 
G|-------------------------|
D|-------------------------|
A|--10---------------------|
E|--(10--------------------|

    
                                                                                                                                                                                                                                                                                                                                                                                                                                                                                                                                                                                                                                                                                                                                                                                                                                                                                                                                                                                                                                                                                                                                                                                              
G|--10---------------------------------|----------------9p10-9-------------|
D|--------8-----7------------------7/10p12-------10-12----------12-10------|
A|-----------------10-8--7--8--10------|-----------------------------------|
E|-------------------------------------|-----------------------------------|

    
                                                                                                                                                                                                                                                                                                                                                                                                                                                                                                                                                                                                 
G|-----------13-------13---------------|
D|--------------14-12----14-12p14------|
A|--11---------------------------------|
E|-------------------------------------|

    
                                                                                                                                                                                                                                                                                                                                                                                                                                                                                                                                                                                                                                                                                                                                                                                                                                                                                                                                                                                                                                                                                                                                                                                              
G|-------------------------|10---------------------------------|
D|-------------------------|------8-----7------------------7/10p
A|--10---------------------|---------------10-8--7--8--10------|
E|-------------------------|-----------------------------------|

    
                                                                                                                                                                                                                                                                                                                                                                                                                                                                                                                                                                                                                                                                                                                                                                                                                                                                                                                                                                                                                                                                                                                                                                                              
G|--------------------10----9----|------------------10----9----|
D|--12----(10------------12----10|12----(10---(9)------12----10|
A|--------11----10---------------|------11----10---------------|
E|-------------------------------|-----------------------------|

    4 4 
                                                                                                                                                                                                                                                                                                                                                                                                                                                                                                                                                                                                                                                                                                                                                                                                                                                                                                                                                                                                                                                                                                                                                                                              
G|-------------------------|10-7--9-----7----------------------------------|
D|--12----(10---(9)--------|---------10----8--10-7--8-----7----------------|
A|--------11----10---------|---------------------------10----8--10-7--8----|
E|-------------------------|---------------------------------------------8-|

    
                                                                                                                                                                                                                                                                                                                                                                                                                                                                                                                                                                                                 
G|-------------------------|
D|-------------------------|
A|-------------------------|
E|--10---------------------|

    
                                                                                                                                                                                                                                                                                                                                                                                                                                                                                                                                                                                                 
G|----------------------------|
D|----------------------------|
A|--------------3-----5-------|
E|--------1-------------------|

    
                                                                                                                                                                                                                                                                                                                                                                                                                                                                                                                                                                                                 
G|----------------------------|
D|----------------------------|
A|--------------3-----5-------|
E|--------1-------------------|

    
                                                                                                                                                                                                                                                                                                                                                                                                                                                                                                                                                                                                 
G|----------------------------|
D|----------------------------|
A|--------------3-----5-------|
E|--------1-------------------|

    
                                                                                                                                                                                                                                                                                                                                                                                                                                                                                                                                                                                                 
G|-----------------7----------|
D|--------------5-------------|
A|--------5--7--------5-------|
E|----------------------------|

    
                                                                                                                                                                                                                                                                                                                                                                                                                                                                                                                                                                                                 
G|----------------------------------------------|
D|----------------------------------------------|
A|-----5--5--5--5--5--5--5--5--5--5--5--5--5--5-|
E|----------------------------------------------|

    
                                                                                                                                                                                                                                                                                                                                                                                                                                                                                                                                                                                                                                                                                                                                                                                                                                                                                                                                                                                                                                                                                                                                                                                              
G|----------------------------------------|--------------------------------------------|
D|----------------------------------------|--------------------------------------------|
A|--5--5--5--5--5--5--5--5--------3-----5-|---5--5--5--5--5--5--5--5--5--5--5--5--5--5-|
E|--------------------------1-------------|--------------------------------------------|

    
                                                                                                                                                                                                                                                                                                                                                                                                                                                                                                                                                                                                 
G|-----------------------------------7----|
D|--------------------------------5-------|
A|--5--5--5--5--5--5--5--5--5--7--------5-|
E|----------------------------------------|

    
                                                                                                                                                                                                                                                                                                                                                                                                                                                                                                                                                                                                                                                                                                                                                                                                                                                                                                                                                                                                                                                                                                                                                                                              
G|-----7--5-----------------7--5-------------|---7--5-----------------7--5-------------|
D|-----------7--5-----------------7--5-------|---------7--5-----------------7--5-------|
A|-----------------8--5-----------------8--5-|---------------8--5-----------------8--5-|
E|-------------------------------------------|-----------------------------------------|

    
                                                                                                                                                                                                                                                                                                                                                                                                                                                                                                                                                                                                                                                                                                                                                                                                                                                                                                                                                                                                                                                                                                                                                                                              
G|-----7--5-----------------7--5-------------|---7--5-----------------7--5-------------|
D|-----------7--5-----------------7--5-------|---------7--5-----------------7--5-------|
A|-----------------8--5-----------------8--5-|---------------8--5-----------------8--5-|
E|-------------------------------------------|-----------------------------------------|

    
                                                                                                                                                                                                                                                                                                                                                                                                                                                                                                                                                                                                                                                                                                                                                                                                                                                                                                                                                                                                                                                                                                                                                                                              
G|-----7--5-----------------7--5-------------|---7--5-----------------7--5-------------|
D|-----------7--5-----------------7--5-------|---------7--5-----------------7--5-------|
A|-----------------8--5-----------------8--5-|---------------8--5-----------------8--5-|
E|-------------------------------------------|-----------------------------------------|

    
                                                                                                                                                                                                                                                                                                                                                                                                                                                                                                                                                                                                 
G|-----7--5-----------------7--5-------------|
D|-----------7--5-----------------7--5-------|
A|-----------------8--5-----------------8--5-|
E|-------------------------------------------|

    
                                                                                                                                                                                                                                                                                                                                                                                                                                                                                                                                                                                                                                                                                                                                                                                                                                                                                                                                                                                                                                                                                                                                                                                              
G|-----7--5----------------------------------|---7--5----------------------------------|
D|-----------7--5--------------5--7--5-------|---------7--5--------------5--7--5-------|
A|-----------------8--5-----8-----------8--5-|---------------8--5-----8-----------8--5-|
E|-------------------------------------------|-----------------------------------------|

    
                                                                                                                                                                                                                                                                                                                                                                                                                                                                                                                                                                                                                                                                                                                                                                                                                                                                                                                                                                                                                                                                                                                                                                                              
G|----------------------------------------------|--------------------------------------|
D|----------------------------------------------|--------------------------------------|
A|-----5--5--5--5--5--5--5--5--5--5--5--5--5--5-|5--5--5--5--5--5--5--5--------3-----5-|
E|----------------------------------------------|------------------------1-------------|

    
                                                                                                                                                                                                                                                                                                                                                                                                                                                                                                                                                                                                 
G|----------------------------------------------|
D|----------------------------------------------|
A|-----5--5--5--5--5--5--5--5--5--5--5--5--5--5-|
E|----------------------------------------------|

    
                                                                                                                                                                                                                                                                                                                                                                                                                                                                                                                                                                                                                                                                                                                                                                                                                                                                                                                                                                                                                                                                                                                                                                                              
G|-----------------------------------7----|---7--5-----------------7--5-------------|
D|--------------------------------5-------|---------7--5-----------------7--5-------|
A|--5--5--5--5--5--5--5--5--5--7--------5-|---------------8--5-----------------8--5-|
E|----------------------------------------|-----------------------------------------|

    
                                                                                                                                                                                                                                                                                                                                                                                                                                                                                                                                                                                                                                                                                                                                                                                                                                                                                                                                                                                                                                                                                                                                                                                              
G|-----7--5-----------------7--5-------------|---7--5-----------------7--5-------------|
D|-----------7--5-----------------7--5-------|---------7--5-----------------7--5-------|
A|-----------------8--5-----------------8--5-|---------------8--5-----------------8--5-|
E|-------------------------------------------|-----------------------------------------|

    
                                                                                                                                                                                                                                                                                                                                                                                                                                                                                                                                                                                                                                                                                                                                                                                                                                                                                                                                                                                                                                                                                                                                                                                              
G|-----7--5-----------------7--5-------------|---7--5-----------------7--5-------------|
D|-----------7--5-----------------7--5-------|---------7--5-----------------7--5-------|
A|-----------------8--5-----------------8--5-|---------------8--5-----------------8--5-|
E|-------------------------------------------|-----------------------------------------|

    
                                                                                                                                                                                                                                                                                                                                                                                                                                                                                                                                                                                                                                                                                                                                                                                                                                                                                                                                                                                                                                                                                                                                                                                              
G|-----7--5-----------------7--5-------------|---7--5-----------------7--5-------------|
D|-----------7--5-----------------7--5-------|---------7--5-----------------7--5-------|
A|-----------------8--5-----------------8--5-|---------------8--5-----------------8--5-|
E|-------------------------------------------|-----------------------------------------|

About Peace Sells... but Who's Buying? : Peace Sells... but Who's Buying? is the second studio album by American heavy metal band Megadeth . The project was originally handled by Combat Records, resulting in the original mix of the album being co-produced by Randy Burns . Capitol Records then bought the rights to the album and hired another producer Peace Sells... but Who's Buying? is often regarded as thrash metal classic . It has been featured in several publications' best album lists . The album has reissued several times over the years . Frontman Dave Mustaine revealed that band had already started writing new material for the second album . He said that two songs ("Black Friday" and "Bad Omen") were finished and described them as a "total blur" It had a contribution from notable artists like Randy Burns,Paul Lani. It had an affiliation to bands - Peace Sells... but Who's Buying?,Megadeth. Its music is influenced by genres - thrash metal.

tabs and chords, guitar tabs, music transcription, music technology, deep learning, music information retrieval, transcribe into tabs & chords, chordify, music renditions, songsterr, reverbnation, tabulature, bollywood chords, ultimate guitar, yousician, guitar lessons, acoustic guitar, electric guitar, guitar tuner, 911 tabs