Guitar Tabs for My Heart Will Go On - Céline Dion

(/) Slide Up  (\) Slide Down  (h) Hammer On  (p) Pull Off  (b) Bend (r) Release (v) Vibrato (x) Muted

Tabs for Song : 
capo at 4rth fret

Song lyrics here
E|------------------1p0--------------3------1p0--------------------------------------
B|---1/3---3/5------------3p1--3-----------------1--------------------------1--0-----
G|--------------------------------0---------------------0h2--0-----0-----0-----------
D|--------------------------------------------------------------3-----0--------------
A|---------0/-------------------------------------------3h---------------------------
E|-----------------------------3-----------------1-----------------3-----------------

E|------------------0h-1p0--------------3-----0---3/5-----5--------3-----------------
B|---1/3---3/5---------------3p1--3-----------------------------------------3--------
G|-----------------------------------0-----------------------------------------------
D|--------------------------------------------------------3--------------------------
A|---------0/------------------------------------------------------3--------2--------
E|--------------------------------3--------------------------------------------------

E|-----------------------------------------------------------------------------------
B|--------0-----1-----------0--------------------------------------------------------
G|--2--------------2-----2-----0--------0-----------0-----2--------------0-----------
D|--------------------2------------0h2-----2--3--------------3-----3-----------2-----
A|--------------0-----------------------------------------------3--------------------
E|---------------------------------3h---------------------1--------------------------

E|--------------------
B|--------1--0--------
G|-----0--------------
D|--0-----------------
A|--------------------
E|--3-----------------

E|--------------------------------------------------------------------------
B|--------1--1--------------------1--1--------------------1--1--------------
G|-----0-----------0-----------0-----------0-----------0-----------0--------
D|--------------------0-----------------------0-----------------------0-----
A|--3-----------------------------------------------------------------------
E|--------------------------3-----------------------1-----------------------

E|--------------------------------------------------------------------------------------------------
B|--------1-----1-----0-----------1--1--------------------1--1--------3-----------1--1--------------
G|-----0-----0-----0-----------0-----------0-----------0-----------0-----------0-----------0--------
D|--------------------------------------------0-----------------------------------------------0-----
A|--------------------------0-----------------------------------------------------------------------
E|--3-----------------------------------------------3-----------------------1-----------------------

E|-----------------------
B|--------1-----1-----0--
G|-----0-----0-----0-----
D|-----------------------
A|-----------------------
E|--3--------------------

E|--------------------------------------------------------------------------0--------------------------
B|--1--------1--1-----1-----0-----1-----------1-----0-----1-----------3--------1---------------3/---1--
G|-----0--------------------------------0-----------------------0-----------------0---------0/---0-----
D|--------2--------2-----------------0-----0-----------------3-----3-----------------------------------
A|--3-----------3--------------------------------------------------------------------------------------
E|--------------------------3-----------------------1-----------------------3------------3/------------


E|-----------------------------------------------------------------------------------------------------------
B|--1--------1--1-----1-----0-----1-----------------1--------------------------0-----0--1--3---1h-3p1--0--1--
G|-----0-----------0-----------------------0--------------0--------------0--2-----2--------------------------
D|--------2-----------------------------0-----0-----------------3--2--3--------------------------------------
A|--3-----------3--------------------------------------------3-----------------------------------------------
E|--------------------------3-----------------------------1--------------------3-----------------------------

E|--------------------------------------------------------------------------0--------------------------
B|--1--------1--1-----1-----0-----1-----------------1-----0--1-----------3-----1---------------3/---1--
G|-----0-----------0-----------------------0------------------------0h2-----------0---------0/---0-----
D|--------2-----------------------------0-----0-----------------3--------------------------------------
A|--3-----------3-----------------------------------------------------------3--------------------------
E|--------------------------3-----------------------------1------------------------------3/------------

E|--------------------------------------------------------------------------------0--------
B|--1--------1--1-----1-----0--1--------------1--------------------------0--1--3-----3--1--
G|-----2-----------------------------0--------------0--------------0--2--------------------
D|--------2--------2--------------0-----0-----------------3--2--3--------------------------
A|--0-----------0--------------------------------------3-----------------------------------
E|--------------------------3-----------------------1--------------------3-----------------

E|--------------------------------------------------3------------3p1--0-----------------0--1--
B|--1--------1------------------3/------3--------------------------------3--------------------
G|-----2--------------0------0/---0--------------0-----2-----2--------------------0-----------
D|--------2--------2-----------------0--------0-----------3--------------------0-----0--------
A|--0--------0--------------------------------------------------------------------------------
E|------------------------3/------------3-----------1------------1p---------3-----------------

E|--0--------0-----------
B|-----1--------3-----1--
G|--------2--------2-----
D|-----------------------
A|--0-----------0--------
E|-----------------------

E|-----------------------------------------------------------0--------
B|--0--1--------------1-----------------------------0--1--3-----3--1--
G|--------------0-----------0-----------------0--2--------------------
D|-----------0-----0-----------------3--2--3--------------------------
A|--------------------------------3-----------------------------------
E|--3-----------------------1-----------------------------------------

E|-----------------------------------------------------3------------3p1--0--------------------0--1--
B|--1--------1------------------3/------3-----------------------------------3-----------------------
G|-----2-----------0---------0/---0--------------0--------2-----2-----------------------0-----------
D|--------2-----2--------------------0--------0--------------3-----------------------0-----0--------
A|--0--------0--------------------------------------------------------------------------------------
E|------------------------3/------------3--------------1------------1p------------3-----------------

E|--0--------0--------1--
B|-----1--------3--------
G|--------2--------2-----
D|-----------------------
A|--0-----------0--------
E|-----------------------

E|-----------------------------------------------0-----------------------------------
B|--0--1--------------1-----0--1------------1h3-----1------------3/---1--1--------1--
G|--------------0---------------------0h2--------------0------0/---0--------0--------
D|-----------0-----0--------------3--------------------------------------------2-----
A|-----------------------------------------------3-----------------------3--------3--
E|--3-----------------------1------------------------------3/------------------------

E|---1p0-----------3--------0--1--------------------------------------
B|---------3p1--3--------3--------1-----------------------------1--0--
G|-----------------------------------2------0h2--0-----0-----0--------
D|--------------------------------------3-----------3-----0-----------
A|------------------------------------------3h------------------------
E|--------------3--------------1-----------------------3--------------

E|------------------0h-1p0--------------3------3p0---3/5-----5-----3-----------
B|---1/3---3/5---------------3p1--3--------------------------------------3-----
G|-----------------------------------0-----------------------------------------
D|-----------------------------------------------------------3-----------------
A|---------0/------------------------------------------------------3-----2-----
E|--------------------------------3--------------------------------------------

E|------------------
B|--------------1-----
G|-----------0--------
D|--------2-----------
A|-----3--------------
E|-----------------

------

Song lyrics here
E|--
B|--
G|--
D|--
A|--
E|--

Paste any tab in acousterr's tab maker and we'll play it !!!
Now supports capo and sound effects for vibrato/pull-off/hammer/bends/mutes etc !!! Checkout help section
tabs and chords, guitar tabs, music transcription, music technology, deep learning, music information retrieval, transcribe into tabs & chords, chordify, music renditions, songsterr, reverbnation, tabulature, bollywood chords, ultimate guitar, yousician, guitar lessons, acoustic guitar, electric guitar, guitar tuner, 911 tabs