Guitar Tabs for My Heart Will Go On

Intro
E|--------------------7--------------------------------------7-----------------------
B|--5--7--9--7--5--7-----9--7--5--2--------5--7--9--7--5--7-----9--12-14-12-9--7-----
G|-----------------------------------2--4--------------------------------------------
D|-----------------------------------------------------------------------------------
A|-----------------------------------------------------------------------------------
E|-----------------------------------------------------------------------------------

Everynight in my dreams...
E|-----------------------------------------------------------------
B|--5--5--5--5--4--5--5--4--5--7--9--7--5--5--5--5--4--5--4--2-----
G|--------------------------------------------------------------4--
D|-----------------------------------------------------------------
A|-----------------------------------------------------------------
E|-----------------------------------------------------------------

Far across the distance...
E|--------------------------------------------------------------
B|--5--5--5--5--4--5--5--4--5--7--9--7--5--5--5--5--4--5--4-----
G|-----------------------------------------------------------4--
D|--------------------------------------------------------------
A|--------------------------------------------------------------
E|--------------------------------------------------------------

Near, far...
E|--------------------------------------------------------------------------------------------------------------------
B|-----------12-10-9--7--9--10-9--7--5--4--5--4--2--------------12-10-9--7--9--10-9--7--5--4--5--2--4--5--7--9--7--5--
G|--9--11-------------------------------------------4--9--11----------------------------------------------------------
D|--------9--------------------------------------------------9--------------------------------------------------------
A|--------------------------------------------------------------------------------------------------------------------
E|--------------------------------------------------------------------------------------------------------------------

Love can touch us one time...
E|--------------------------------------------------------------
B|--------------------------------------------------------------
G|--9--9--9--9--8--9--9--8--9--11-13-11-9--9--9--9--8--9--8--4--
D|--------------------------------------------------------------
A|--------------------------------------------------------------
E|--------------------------------------------------------------

Love was when I loved you
E|------------------------------16----------------------------
B|--17-17-17-17-16-17-17-16-17-19----19-17-17-17-17-16-17-16----
G|-----------------------------------------------------------16-
D|--------------------------------------------------------------
A|--------------------------------------------------------------
E|--------------------------------------------------------------

Near, far...
E|-----------19-17-16-14-16-17-16-14----------------------------19-17-16-14-16-17-16-14----------------------16-------
B|--17-19----------------------------17-16-17-16-14----17-19----------------------------17-16-17-16-16-17-19----19-17-
G|--------16----------------------------------------16-------16-------------------------------------------------------
D|--------------------------------------------------------------------------------------------------------------------
A|--------------------------------------------------------------------------------------------------------------------
E|--------------------------------------------------------------------------------------------------------------------

Outro
E|--------------------------------------------------------------------------------------------------------------------
B|-----------16-14-13----13-14-13-------------------------------16-14-13----13-14-13-------------------------13-------
G|--13-15-------------15----------15-13-12-13-12-------13-15-------------15----------15-13-12-13-12-12-13-15----15-13-
D|--------13-------------------------------------15-13-------13-------------------------------------------------------
A|--------------------------------------------------------------------------------------------------------------------
E|--------------------------------------------------------------------------------------------------------------------



tabs and chords, guitar tabs, music transcription, music technology, deep learning, music information retrieval, transcribe into tabs & chords, chordify, music renditions, songsterr, reverbnation, tabulature, bollywood chords, ultimate guitar, yousician, guitar lessons, acoustic guitar, electric guitar, guitar tuner, 911 tabs