Guitar Tabs for My Heart Will Go On

capo on 3rd fret
E|--3--5------5/7--------8--7---5\3-----5-----10-------7--10----12-------10-------5--
B|--0-----------------------------------------7-----------------8--------8--------3--
G|--0-----------------------------------------7-----------------7--------7--------2--
D|--0-----------------------------------------7-----------------------------------0--
A|-----------------------------------------------------------------------------------
E|-----------------------------------------------------------------------------------

Every night in my dreams
E|--------3-----3--3-----3--2-----2-----3--------3--2-----2-----3--------5-----7--------5--
B|--------0-----------------------3-----------------------1--------------------3--------3--
G|--------0-----------------------2-----------------------0--------------------5--------5--
D|--------0-----------------------0-----------------------0--------------------0--------0--
A|-----------------------------------------------------------------------------------------
E|-----------------------------------------------------------------------------------------

That is how...
E|--------3-----3--3-----3--2-----2-----3--------0--------2--
B|--------0-----------------------3--------------1--------3--
G|--------0-----------------------2--------------0--------2--
D|--------0-----------------------0--------------2--------0--
A|-----------------------------------------------------------
E|-----------------------------------------------------------

Near far...
E|--------3-----------5-----------10-------8-----7-----5--------
B|--------5-----------7-----------7--------7-----------3--------
G|--------4-----------7-----------7--------7-----------2--------
D|--------0-----------0--------0--7--------7-----------0--------
A|--------------------------------------------------------------
E|--------------------------------------------------------------

I believe that the heart does go on
E|-----7--8-----7--------5-----3-----2-----3--------2-----------0-----------2--
B|--------------8--------------------3--------------------------1-----------3--
G|--------------9--------------------2--------------------------0-----------2--
D|--------------0--------------------0--------------------------2-----------0--
A|-----------------------------------------------------------------------------
E|-----------------------------------------------------------------------------

Once more you open the door
E|--------3-----------5-----------10-------8-----7-----5--------
B|--------5-----------7-----------7--------7-----------3--------
G|--------4-----------7-----------7--------7-----------2--------
D|--------0-----------0--------0--7--------7-----------0--------
A|--------------------------------------------------------------
E|--------------------------------------------------------------

You are here...
E|-----7-----8-----7--------5-----3-----2-----3--------3-----2-----
B|-----------------8--------------------3--------------------------
G|-----------------9--------------------2--------------------------
D|-----------------0--------------------0--------------------------
A|-----------------------------------------------------------------
E|-----------------------------------------------------------------

Heart will
E|-----2-----3--------5-----7-----------5-----------3--
B|-----1--------------------3-----------3-----------0--
G|-----0--------------------5-----------5-----------0--
D|-----0--------------------0-----------0-----------0--
A|-----------------------------------------------------
E|-----------------------------------------------------

tabs and chords, guitar tabs, music transcription, music technology, deep learning, music information retrieval, transcribe into tabs & chords, chordify, music renditions, songsterr, reverbnation, tabulature, bollywood chords, ultimate guitar, yousician, guitar lessons, acoustic guitar, electric guitar, guitar tuner, 911 tabs