Guitar Tabs for Move On Violin Bootleg

??????? ??? ???? ????????, ???????, ????????????? ? ??
1:52
E|--8-----5-----7-----------8-----5-----10-------------------
B|--5-----7-----8-----------5-----7-----12-------8--10-12-13-
G|-----------------------------------------------7--9--11-12-
D|-----------------------------------------------------------
A|-----------------------------------------------------------
E|-----------------------------------------------------------
2:34
E|--8-----5-----7--|     
B|--5-----7-----8--| x3, 
G|-----------------
D|-----------------
A|-----------------
E|-----------------
?? 4 ???, ????? ???????
E|--8-----5-----10--
B|--5-----7-----12--
G|------------------
D|------------------
A|------------------
E|------------------
????? ????????, ??????? ????
E|--7-----7-----7-----7-----7-----7-----7-----7-----------------------------7-----7-----7-----7--
B|--3-----3-----3-----3-----8-----8-----8-----8-----10----10----10----10----8-----8-----8-----8--
G|--------------------------------------------------11----11----11----11-------------------------
D|-----------------------------------------------------------------------------------------------
A|-----------------------------------------------------------------------------------------------
E|-----------------------------------------------------------------------------------------------

                                                                           |? ??? ??? ??????????
E|--7-----7-----7-----7-----7-----7-----7-----7--------------------------------------------------
B|--3-----3-----3-----3-----8-----8-----8-----8-----10----10----10----10----12----12----13----15-
G|--------------------------------------------------11----11----11----11----12----12----12----12-
D|-----------------------------------------------------------------------------------------------
A|-----------------------------------------------------------------------------------------------
E|-----------------------------------------------------------------------------------------------

?? ????????? ?????? ??? ???????)

E|--8-----5-----7-----------8-----5-----7-----------8-----5-----7--------------8-----5-----7-----------------
B|--5-----7-----8-----------5-----7-----8-----------5-----7-----8--10\-8\-7\5--5-----7-----8-----8--10-12---- 
G|-----------------------------------------------------------------------------------------------7--9--11----
D|-----------------------------------------------------------------------------------------------------------
A|-----------------------------------------------------------------------------------------------------------
E|-----------------------------------------------------------------------------------------------------------

E|--8-----5-----7--------------8-----5-----7~~
B|--5-----7-----8--10\-8\-7\5--5-----7-----8~~
G|--------------------------------------------
D|--------------------------------------------
A|--------------------------------------------
E|--------------------------------------------
tabs and chords, guitar tabs, music transcription, music technology, deep learning, music information retrieval, transcribe into tabs & chords, chordify, music renditions, songsterr, reverbnation, tabulature, bollywood chords, ultimate guitar, yousician, guitar lessons, acoustic guitar, electric guitar, guitar tuner, 911 tabs