Bass Tabs for Bust A Move

G|--------------------------------------------------------------------------------------------------
D|--------------------------------------------------------------------------------------------------
A|--------------------------------------------3--5--6--7--------------------------------------------
E|--0--0-----0--3-----2--3--5--5-----5-----------------------0--0-----0--3-----2--3--5--5-----5-----

G|--------------------
D|--------------------
A|--3-----2--2--------
E|-----------------5--


tabs and chords, guitar tabs, music transcription, music technology, deep learning, music information retrieval, transcribe into tabs & chords, chordify, music renditions, songsterr, reverbnation, tabulature, bollywood chords, ultimate guitar, yousician, guitar lessons, acoustic guitar, electric guitar, guitar tuner, 911 tabs