More Girls Like You-maroon 5 - Guitar Tabs

(/) Slide Up  (\) Slide Down  (h) Hammer On  (p) Pull Off  (b) Bend (r) Release (v) Vibrato (x) Muted

Tabs for Song : 
BPM : 200

Song lyrics here 
E|-----x--x--x--x--x--x-----x-----x-----x--
B|-----x--x--x--x--x--x-----x-----x-----x--
G|-----x--x--x--x--x--x-----x-----x-----x--
D|-----x--x--x--x--x--x--5--x--3--x--2--x--
A|--3--x--x--x--x--x--x-----x-----x-----x--
E|-----x--x--x--x--x--x-----x-----x-----x--

E|-----x--x--x--x--x--x-----x-----x-----
B|-----x--x--x--x--x--x-----x-----x-----
G|-----x--x--x--x--x--x-----x-----x-----
D|-----x--x--x--x--x--x--5--x--7--x-----
A|--3--x--x--x--x--x--x-----x-----x--7--
E|-----x--x--x--x--x--x-----x-----x-----

E|-----x--x--x--x--x--x-----x--------------------------------------------
B|-----x--x--x--x--x--x-----x--------------------------------------------
G|-----x--x--x--x--x--x-----x--------------------------------------------
D|-----x--x--x--x--x--x--5--x--3-----2--0-----2--2--2-----0-----2--2--2--
A|--3--x--x--x--x--x--x-----x--------------------------------------------
E|-----x--x--x--x--x--x-----x--------------------------------------------

Song lyrics here 
E|--
B|--
G|--
D|--
A|--
E|--

Use manual mode to free up cursor. Paste any tab in acousterr tab maker and we'll play it !!!

About Girls Like You : The track was written by lead singer Adam Levine, Starrah, Gian Stone, Cirkut, and Jason Evigan . A second version featuring and co-written by American rapper Cardi B, was released on May 30, 2018 as the album's fifth and final single . Maroon 5's fourth and Cardi B's third chart-topper . The song's accompanying music video was directed by David Dobkin . The single achieved commercial success, spending seven weeks at number one . "Girls Like You" has won multiple awards including at the 2019 Billboard Music Awards . The song received a nomination for Best Pop Duo/Group Performance at the 61st Grammy Awards . It was released in 2018. It was released as part of album Red Pill Blues. The genre is pop pop rock. The track was release in 2018. Girls Like You has a significant contribution from artist(s) Adam Levine,Jason Evigan. It is related to the album(s) - Red Pill Blues. The track has an affiliation to the band(s) - Maroon.

About Red Pill Blues : Red Pill Blues is the sixth studio album by American band Maroon 5 . It was released on November 3, 2017, through 222 and Interscope Records . It is the band's first release to feature multi-instrumentalist Sam Farrar . The album includes the singles "Don't Wanna Know", "Cold", "What Lovers Do", "Wait", and "Girls Like You" The first two singles are only included on the album's deluxe edition . The third single peaked within the top ten in twenty-five countries . After touring in support of their fifth studio album V, Maroon 5 began planning a follow-up to V . The band posted teaser gifs and videos of members in the studio on their social media accounts in late March . It had a contribution from notable artists like Sam Farrar,Mickey Madden. It had an affiliation to bands - Red Pill Blues,Maroon 5. Its music is influenced by genres - pop r&b funk soft rock.

tabs and chords, guitar tabs, music transcription, music technology, deep learning, music information retrieval, transcribe into tabs & chords, chordify, music renditions, songsterr, reverbnation, tabulature, bollywood chords, ultimate guitar, yousician, guitar lessons, acoustic guitar, electric guitar, guitar tuner, 911 tabs