Guitar Tabs for moh moh

Tabs for Song : Moh Moh

ye moh moh ke dhaage
E|-----------------------------------
B|-----------------------------------
G|-----------------------------------
D|--------4--4--4--4---5/4-----------
A|--5--7--------------------5--4-----
E|-----------------------------------

teri ungliyon se ja uijhe
E|--------------------------------------
B|--------------------------------------
G|--------------------------------------
D|-----------------4--------------------
A|--5--4--5--7--7-----7--5--4--5--4-----
E|--------------------------------------

koi toh toh na laage 
E|-----------------------------------
B|-----------------------------------
G|-----------------------------------
D|--------4--4--4--4---5/4-----------
A|--5--7--------------------5--4-----
E|-----------------------------------

kis trha girha ye suljhe
E|--------------------------------------
B|--------------------------------------
G|--------------------------------------
D|-----------------4--------------------
A|--5--4--5--7--7-----7--5--4--5--4-----
E|--------------------------------------

hai rom rom ek taara
E|--------------------------------
B|--------------------------------
G|--------------------------------
D|--7--6--4--4--6--6--7--8--8-----
A|--------------------------------
E|--------------------------------

jo baadlon me se guzre
E|-----------------------------------------
B|-----------------------------------------
G|--6--------7--6--------------------------
D|-----8--8--------8--7--7--6--4---6/4-----
A|-----------------------------------------
E|-----------------------------------------

tu hoga zara pagal tune mujhko hai chuna
E|--------------------------------------------------
B|--------------------------------------------------
G|--------------------------------------------------
D|-----------4--6---6/7--4--4--4--4-----------------
A|--5--5--7--------------------------7--7--4--5-----
E|--------------------------------------------------

kal se tune ankakahaa
E|-----------------------------
B|-----------------------------
G|-----------------------------
D|-----------------------4-----
A|--5--4--------4--5--7--------
E|--------7--7-----------------

tune ankaha sab suna
E|--------------------------------------
B|--------------------------------------
G|--------------------------------------
D|-----------------4--------------------
A|--5--4--5--7--7-----7--5--4--5--4-----
E|--------------------------------------

tu hoga zara pagal tune mujhko hai chuna
E|--------------------------------------------------
B|--------------------------------------------------
G|--------------------------------------------------
D|-----------4--6---6/7--4--4--4--4-----------------
A|--5--5--7--------------------------7--7--4--5-----
E|--------------------------------------------------

tu din sa hai
E|-----------------------------
B|-----------------------------
G|-----------------------------
D|--7--6--4--6--4--4--6--7-----
A|-----------------------------
E|-----------------------------

aa na dono mil jaye shamon ki tarah
E|-----------------------------------------------------
B|-----------------------------------------------------
G|-----------------6--6--6--7--6-----------------------
D|--8--7--4--6--4-----------------8-----8--7--6--4-----
A|-----------------------------------------------------
E|-----------------------------------------------------

e moh moh ke dhaage
E|-----------------------------------
B|-----------------------------------
G|-----------------------------------
D|--------4--4--4--4---5/4-----------
A|--5--7--------------------5--4-----
E|-----------------------------------

teri ungliyon se ja uijhe
E|--------------------------------------
B|--------------------------------------
G|--------------------------------------
D|-----------------4--------------------
A|--5--4--5--7--7-----7--5--4--5--4-----
E|--------------------------------------


tabs and chords, guitar tabs, music contests, music covers, songsterr, reverbnation, renditions, tabulature, bollywood chords, ultimate guitar, yousician, guitar lessons, torrins, fender, gibson, acoustic guitar, electric guitar, youtube covers, gootar, guitar tuner, A-Z tabs, 911 tabs