Ukulele Tabs for Mission Impossible Ukulele Theme

A|--------------1--3--------------------------------1--3-----------------------
E|--3-----3-----------3-----3-----1--2--3-----3-----------3-----3-----1--2-----
C|-----------------------------------------------------------------------------
G|-----------------------------------------------------------------------------


A|--15-12-------15-12-------15-12----------------
E|--------12----------11----------10-----8h10----
C|-----------------------------------------------
G|-----------------------------------------------


A|--------9-----------8-----------7-----6--5-----
E|--6--3--------6--3--------6--3-----------------
C|-----------------------------------------------
G|-----------------------------------------------


A|-----6--3--------6--3--------6--3-----------------
E|-----------3--------------------------------------
C|-----------------------6-----------5------3h5-----
G|--------------------------------------------------


A|--------9-----------8-----------7-----6--5--
E|--6--3--------6--3--------6--3--------------
C|--------------------------------------------
G|--------------------------------------------
tabs and chords, guitar tabs, music transcription, music technology, deep learning, music information retrieval, transcribe into tabs & chords, chordify, music renditions, songsterr, reverbnation, tabulature, bollywood chords, ultimate guitar, yousician, guitar lessons, acoustic guitar, electric guitar, guitar tuner, 911 tabs