Guitar Tabs for Mission Impossible Theme

Guitar Tabs for Mission Impossible Theme

E|-----------------------------------------------------------------------------------------
B|-----------------------------------------------------------------------------------------
G|-----------------------------------------------------------------------------------------
D|-----------------------------------------------------------------------------------------
A|-----------------1--3--------------------------------------1--3--------------------------
E|-----3-----3--------------3-----3-----1--2-----3-----3--------------3-----3-----1--2-----

E|-----------------------------------------------------------------------------------
B|-----------------------------------------------------------------------------------
G|-----------------------------------------------------------------------------------
D|--------------3--5--------------------------------------3--5-----------------------
A|--5-----5-----1--3-----5-----5-----3--4-----5-----5-----1--3-----5-----5-----3--4--
E|--3-----3--------------3-----3-----1--2-----3-----3--------------3-----3-----1--2--

E|---6p3------------6p3------------6p3--------------------
B|--------3-----------------------------------------------
G|-----------------------6--------------5---------3h5-----
D|--------------------------------------------------------
A|--------------------------------------------------------
E|--------------------------------------------------------

E|--------2--------------1--------------0--------------
B|------------------------------------------------4p3--
G|---3p0------------3p0------------3p0-----------------
D|-----------------------------------------------------
A|-----------------------------------------------------
E|-----------------------------------------------------

E|-----11p8-----------11p8-----------11p8-----------------------
B|-----------8--------------------------------------------------
G|--------------------------11-------------10--------8h10-------
D|--------------------------------------------------------------
A|--------------------------------------------------------------
E|--------------------------------------------------------------

E|--------2--------------1--------------0--------------
B|------------------------------------------------4p3--
G|---3p0------------3p0------------3p0-----------------
D|-----------------------------------------------------
A|-----------------------------------------------------
E|-----------------------------------------------------

E|-----------------------------------------------------------------------------------
B|-----------------------------------------------------------------------------------
G|-----------------------------------------------------------------------------------
D|--------------3--5--------------------------------------3--5-----------------------
A|--5-----5-----1--3-----5-----5-----3--4-----5-----5-----1--3-----5-----5-----3--4--
E|--3-----3--------------3-----3-----1--2-----3-----3--------------3-----3-----1--2--


tabs and chords, guitar tabs, music transcription, music technology, deep learning, music information retrieval, transcribe into tabs & chords, chordify, music renditions, songsterr, reverbnation, tabulature, bollywood chords, ultimate guitar, yousician, guitar lessons, acoustic guitar, electric guitar, guitar tuner, 911 tabs