Mission Impossible Theme - Guitar Tabs

(/) Slide Up  (\) Slide Down  (h) Hammer On  (p) Pull Off  (b) Bend (r) Release (v) Vibrato (x) Muted

Tabs for Song : mission impossible theme

BPM : |--------------------------------------------------------------------



E|-----------------------------------------------------------------------------------------------
B|-----------------------------------------------------------------------------------------------
G|-----------------------------------------------------------------------------------------------
D|-----------------------------------------------------------------------------------------------
A|--------------1-----3-----------------------------------------1-----3--------------------------
E|--3-----3-----------------3-----3-----1-----2-----3-----3-----------------3-----3-----1-----2--
 
 
E|-----------------------------------------------------------------------------------------------
B|-----------------------------------------------------------------------------------------------
G|--------------3-----5-----------------------------------------3-----5--------------------------
D|--5-----5-----------------5-----5-----3-----4-----5-----5-----------------5-----5-----3-----4--
A|-----------------------------------------------------------------------------------------------
E|-----------------------------------------------------------------------------------------------

E|-----------------------------------------------------------------
B|-----------------------------------------------------------------
G|--3-----0-----------3-----0-----------3-----0--------------------
D|-----------------------------------------------------------------
A|--------------5-----------------4-----------------3-----1-----3--
E|-----------------------------------------------------------------

E|--------------2-----------------1-----------------0--------------
B|--------------------------------------------------------4-----3--
G|--3-----0-----------3-----0-----------3-----0--------------------
D|-----------------------------------------------------------------
A|-----------------------------------------------------------------
E|-----------------------------------------------------------------


Song lyrics here 
E|--
B|--
G|--
D|--
A|--
E|--

Song lyrics here 
E|--
B|--
G|--
D|--
A|--
E|--

Use manual mode to free up cursor. Paste any tab in acousterr tab maker and we'll play it !!!

About Mission: Impossible – Ghost Protocol : Tom Cruise reprises his role of IMF agent Ethan Hunt . It stars Jeremy Renner, Simon Pegg, Paula Patton, Michael Nyqvist, Anil Kapoor and Léa Seydoux . The film went on to become the highest-grossing film in the series . It was followed by Mission: Impossible – Rogue Nation, which was released in July 2015 . IMF agent Trevor Hanaway is killed in Budapest by assassin Sabine Moreau . She takes his file containing Russian nuclear launch codes to give them to a

tabs and chords, guitar tabs, music transcription, music technology, deep learning, music information retrieval, transcribe into tabs & chords, chordify, music renditions, songsterr, reverbnation, tabulature, bollywood chords, ultimate guitar, yousician, guitar lessons, acoustic guitar, electric guitar, guitar tuner, 911 tabs