Guitar Tabs for Minor Swing Arpeggios


Tabs for Song : Apeggios over Minor Swing Chord(voicing)

    Am6                                 Dm6                                 E7 (diminished)
E|--------------------------5-----------------------------------10----------------------------7--10-13----------
B|-----------------------5-----------------------------------10-------------------------6--9--------------------
G|--------------2--4--5-----------------------------7--9--10-------------------------7--------------------------
D|-----------2-----------------------------------7-----------------------------6--9-----------------------------
A|--0--2--3-----------------------------5--7--8-----------------------------7-----------------------------------
E|--------------------------------------------------------------------------------------------------------------
    Am6                  C#dim             Dm6                                Am6
E|-----------------------------------6--9--12-10-------12----12-10-------12----7-----------7-----7-----------7-----
B|--------------------------------8--------------10----------------10-------------10----------------10-------------
G|--------------------------6--9--------------------10----------------10-------------9-----------------9-----------
D|--------------7--------7--------------------------------------------------------------10----------------10-------
A|-----------7-----------------------------------------------------------------------------------------------------
E|--5--7--8--------------------------------------------------------------------------------------------------------
    Bb (Tritone Sub)        E7                      Am-E7 Turnaround
E|--6-----------------------------------------7-----------------------4--7--5--
B|-----9--6-----------------------------6--9--------------5--------6-----------
G|-----------7-----------------------7-----------------5--------7--------------
D|--------------8--7--6--------6--9-----------------7--------------------------
A|-----------------------8--7--------------------------------------------------
E|-----------------------------------------------------------------------------
tabs and chords, guitar tabs, music contests, music covers, songsterr, reverbnation, renditions, tabulature, bollywood chords, ultimate guitar, yousician, guitar lessons, torrins, fender, gibson, acoustic guitar, electric guitar, youtube covers, gootar, guitar tuner, A-Z tabs, 911 tabs