Millennium - Killing Joke - Guitar Tabs

Track 5
    
                                                                                                                                                                                                                                                                                                                                                                                                                                                                                                                                                                                                 
E|----------------------------------|
B|----------------------------------|
G|----------------------------------|
D|--------0--------0--2-------------|
A|--0--2-----0--2-------------------|
E|----------------------------------|

    
                                                                                                                                                                                                                                                                                                                                                                                                                                                                                                                                                                                                                                                                                                                                                                                                                                                                                                                                                                                                                                                                                                                                                                                              
E|-------------------------------|-----------------------------------|
B|-------------------------------|-----------------------------------|
G|-------------------------------|-----------------------------------|
D|-------------------------------|-----------------------------------|
A|--2--2--2--2--2--2--2--2--2--2-|2--2--2--2--2----------------------|
E|--0--0--0--0--0--0--0--0--0--0-|0--0--0--0--0--0--3--2--1--3--2--1-|

    
                                                                                                                                                                                                                                                                                                                                                                                                                                                                                                                                                                                                                                                                                                                                                                                                                                                                                                                                                                                                                                                                                                                                                                                              
E|-------------------------------|--------------------------|
B|-------------------------------|--------------------------|
G|-------------------------------|--------------------------|
D|-------------------------------|---------------3-----0----|
A|--2--2--2--2--2--2--2--2--2--2-|2--2--2--2--2--3-----0----|
E|--0--0--0--0--0--0--0--0--0--0-|0--0--0--0--0--1----------|

    
                                                                                                                                                                                                                                                                                                                                                                                                                                                                                                                                                                                                                                                                                                                                                                                                                                                                                                                                                                                                                                                                                                                                                                                              
E|-------------------------------|-----------------------------------|
B|-------------------------------|-----------------------------------|
G|-------------------------------|-----------------------------------|
D|-------------------------------|-----------------------------------|
A|--2--2--2--2--2--2--2--2--2--2-|2--2--2--2--2----------------------|
E|--0--0--0--0--0--0--0--0--0--0-|0--0--0--0--0--0--3--2--1--3--2--1-|

    
                                                                                                                                                                                                                                                                                                                                                                                                                                                                                                                                                                                                                                                                                                                                                                                                                                                                                                                                                                                                                                                                                                                                                                                              
E|-------------------------------|-----------------------------------|
B|-------------------------------|-----------------------------------|
G|-------------------------------|-----------------------------------|
D|-------------------------------|---------------------0--------0--2-|
A|--2--2--2--2--2--2--2--2--2--2-|2--2--2--2--2--0--2-----0--2-------|
E|--0--0--0--0--0--0--0--0--0--0-|0--0--0--0--0----------------------|

    
                                                                                                                                                                                                                                                                                                                                                                                                                                                                                                                                                                                                                                                                                                                                                                                                                                                                                                                                                                                                                                                                                                                                                                                              
E|-------------------------------|-----------------------------------|
B|-------------------------------|-----------------------------------|
G|-------------------------------|-----------------------------------|
D|-------------------------------|-----------------------------------|
A|--2--2--2--2--2--2--2--2--2--2-|2--2--2--2--2----------------------|
E|--0--0--0--0--0--0--0--0--0--0-|0--0--0--0--0--0--3--2--1--3--2--1-|

    
                                                                                                                                                                                                                                                                                                                                                                                                                                                                                                                                                                                                                                                                                                                                                                                                                                                                                                                                                                                                                                                                                                                                                                                              
E|-------------------------------|--------------------------|
B|-------------------------------|--------------------------|
G|-------------------------------|--------------------------|
D|-------------------------------|---------------3-----0----|
A|--2--2--2--2--2--2--2--2--2--2-|2--2--2--2--2--3-----0----|
E|--0--0--0--0--0--0--0--0--0--0-|0--0--0--0--0--1----------|

    
                                                                                                                                                                                                                                                                                                                                                                                                                                                                                                                                                                                                                                                                                                                                                                                                                                                                                                                                                                                                                                                                                                                                                                                              
E|-------------------------------|-----------------------------------|
B|-------------------------------|-----------------------------------|
G|-------------------------------|-----------------------------------|
D|-------------------------------|-----------------------------------|
A|--2--2--2--2--2--2--2--2--2--2-|2--2--2--2--2----------------------|
E|--0--0--0--0--0--0--0--0--0--0-|0--0--0--0--0--0--3--2--1--3--2--1-|

    
                                                                                                                                                                                                                                                                                                                                                                                                                                                                                                                                                                                                                                                                                                                                                                                                                                                                                                                                                                                                                                                                                                                                                                                              
E|-------------------------------|-----------------------------------|
B|-------------------------------|-----------------------------------|
G|-------------------------------|-----------------------------------|
D|-------------------------------|---------------------0--------0--2-|
A|--2--2--2--2--2--2--2--2--2--2-|2--2--2--2--2--0--2-----0--2-------|
E|--0--0--0--0--0--0--0--0--0--0-|0--0--0--0--0----------------------|

    
                                                                                                                                                                                                                                                                                                                                                                                                                                                                                                                                                                                                                                                                                                                                                                                                                                                                                                                                                                                                                                                                                                                                                                                              
E|-------------------------------|-----------------------------------|
B|-------------------------------|-----------------------------------|
G|-------------------------------|-----------------------------------|
D|-------------------------------|-----------------------------------|
A|--2--2--2--2--2--2--2--2--2--2-|2--2--2--2--2----------------------|
E|--0--0--0--0--0--0--0--0--0--0-|0--0--0--0--0--0--3--2--1--3--2--1-|

    
                                                                                                                                                                                                                                                                                                                                                                                                                                                                                                                                                                                                                                                                                                                                                                                                                                                                                                                                                                                                                                                                                                                                                                                              
E|-------------------------------|--------------------------|
B|-------------------------------|--------------------------|
G|-------------------------------|--------------------------|
D|-------------------------------|---------------3-----0----|
A|--2--2--2--2--2--2--2--2--2--2-|2--2--2--2--2--3-----0----|
E|--0--0--0--0--0--0--0--0--0--0-|0--0--0--0--0--1----------|

    
                                                                                                                                                                                                                                                                                                                                                                                                                                                                                                                                                                                                                                                                                                                                                                                                                                                                                                                                                                                                                                                                                                                                                                                              
E|-------------------------------|-----------------------------------|
B|-------------------------------|-----------------------------------|
G|-------------------------------|-----------------------------------|
D|-------------------------------|-----------------------------------|
A|--2--2--2--2--2--2--2--2--2--2-|2--2--2--2--2----------------------|
E|--0--0--0--0--0--0--0--0--0--0-|0--0--0--0--0--0--3--2--1--3--2--1-|

    
                                                                                                                                                                                                                                                                                                                                                                                                                                                                                                                                                                                                                                                                                                                                                                                                                                                                                                                                                                                                                                                                                                                                                                                              
E|-------------------------------|-----------------------------------|
B|-------------------------------|-----------------------------------|
G|-------------------------------|-----------------------------------|
D|-------------------------------|---------------------0--------0--2-|
A|--2--2--2--2--2--2--2--2--2--2-|2--2--2--2--2--0--2-----0--2-------|
E|--0--0--0--0--0--0--0--0--0--0-|0--0--0--0--0----------------------|

    
                                                                                                                                                                                                                                                                                                                                                                                                                                                                                                                                                                                                                                                                                                                                                                                                                                                                                                                                                                                                                                                                                                                                                                                              
E|-------------------------------------------|-----------------------------|
B|-------------------------------------------|-----------------------------|
G|-------------------------------------------|-----------------------------|
D|-------------------------------------------|-----------------------------|
A|--3--------2--2-----2--3--------2--2-----2-|3-----2--2-----2--3----------|
E|--1-----0--0--0-----0--1-----0--0--0-----0-|1-----0--0-----0--1----------|

    
                                                                                                                                                                                                                                                                                                                                                                                                                                                                                                                                                                                                                                                                                                                                                                                                                                                                                                                                                                                                                                                                                                                                                                                              
E|-------------------------------------------|-----------------------------|
B|-------------------------------------------|-----------------------------|
G|-------------------------------------------|-----------------------------|
D|-------------------------------------------|-----------------------------|
A|--3--------2--2-----2--3--------2--2-----2-|3-----2--2-----2--3----------|
E|--1-----0--0--0-----0--1-----0--0--0-----0-|1-----0--0-----0--1----------|

    
                                                                                                                                                                                                                                                                                                                                                                                                                                                                                                                                                                                                                                                                                                                                                                                                                                                                                                                                                                                                                                                                                                                                                                                              
E|-------------------------------|-----------------------------|
B|-------------------------------|-----------------------------|
G|-------------------------------|-----------------------------|
D|-------------------------------|-----------------------------|
A|--2--2--2--2--2--2--2--2--2--2-|2--2--2--2--2--2--2--2--2--2-|
E|--0--0--0--0--0--0--0--0--0--0-|0--0--0--0--0--0--0--0--0--0-|

    
                                                                                                                                                                                                                                                                                                                                                                                                                                                                                                                                                                                                                                                                                                                                                                                                                                                                                                                                                                                                                                                                                                                                                                                              
E|-------------------------------|-----------------------------|
B|-------------------------------|-----------------------------|
G|-------------------------------|-----------------------------|
D|-------------------------------|-----------------------------|
A|--2--2--2--2--2--2--2--2--2--2-|2--2--2--2--2--2--2--2--2--2-|
E|--0--0--0--0--0--0--0--0--0--0-|0--0--0--0--0--0--0--0--0--0-|

    
                                                                                                                                                                                                                                                                                                                                                                                                                                                                                                                                                                                                                                                                                                                                                                                                                                                                                                                                                                                                                                                                                                                                                                                              
E|-------------------------------|-----------------------------|
B|-------------------------------|-----------------------------|
G|-------------------------------|-----------------------------|
D|-------------------------------|-----------------------------|
A|--2--2--2--2--2--2--2--2--2--2-|2--2--2--2--2--2--2--2--2--2-|
E|--0--0--0--0--0--0--0--0--0--0-|0--0--0--0--0--0--0--0--0--0-|

    
                                                                                                                                                                                                                                                                                                                                                                                                                                                                                                                                                                                                 
E|-------------------------------|
B|-------------------------------|
G|-------------------------------|
D|-------------------------------|
A|--2--2--2--2--2--2--2--2--2--2-|
E|--0--0--0--0--0--0--0--0--0--0-|

    
                                                                                                                                                                                                                                                                                                                                                                                                                                                                                                                                                                                                                                                                                                                                                                                                                                                                                                                                                                                                                                                                                                                                                                                              
E|-------------------------------|-----------------------|
B|-------------------------------|-----------------------|
G|-------------------------------|-----------------------|
D|-------------------------------|-----------------------|
A|--2--2--2--2--2--2--2--2--2--2-|2-----2-----2-----2----|
E|--0--0--0--0--0--0--0--0--0--0-|0-----0-----0-----0----|

    
                                                                                                                                                                                                                                                                                                                                                                                                                                                                                                                                                                                                 
E|-------------------------|
B|-------------------------|
G|-------------------------|
D|--2-----2-----2-----2----|
A|--0-----0-----0-----0----|
E|-------------------------|

    
                                                                                                                                                                                                                                                                                                                                                                                                                                                                                                                                                                                                 
E|-------------------------|
B|-------------------------|
G|-------------------------|
D|--5-----5-----5-----5----|
A|--3-----3-----3-----3----|
E|-------------------------|

    
                                                                                                                                                                                                                                                                                                                                                                                                                                                                                                                                                                                                                                                                                                                                                                                                                                                                                                                                                                                                                                                                                                                                                                                              
E|-------------------------|--------------------------------|
B|-------------------------|--------------------------------|
G|-------------------------|--------------------------------|
D|--7-----7-----7-----7----|--------------------------------|
A|--5-----5-----5-----5----|2--2--2--2--2--2--2--2--2-------|
E|-------------------------|0--0--0--0--0--0--0--0--0-------|

    
                                                                                                                                                                                                                                                                                                                                                                                                                                                                                                                                                                                                                                                                                                                                                                                                                                                                                                                                                                                                                                                                                                                                                                                              
E|----------------------------------------|-----------------------------|
B|----------------------------------------|-----------------------------|
G|----------------------------------------|-----------------------------|
D|--------------------------0--------0--2-|-----------------------------|
A|--2--2--2--2--2--2--0--2-----0--2-------|2--2--2--2--2--2--2--2--2--2-|
E|--0--0--0--0--0--0----------------------|0--0--0--0--0--0--0--0--0--0-|

    
                                                                                                                                                                                                                                                                                                                                                                                                                                                                                                                                                                                                                                                                                                                                                                                                                                                                                                                                                                                                                                                                                                                                                                                              
E|-------------------------------------|-----------------------------|
B|-------------------------------------|-----------------------------|
G|-------------------------------------|-----------------------------|
D|-------------------------------------|-----------------------------|
A|--2--2--2--2--2----------------------|2--2--2--2--2--2--2--2--2--2-|
E|--0--0--0--0--0--0--3--2--1--3--2--1-|0--0--0--0--0--0--0--0--0--0-|

    
                                                                                                                                                                                                                                                                                                                                                                                                                                                                                                                                                                                                                                                                                                                                                                                                                                                                                                                                                                                                                                                                                                                                                                                              
E|----------------------------|-----------------------------|
B|----------------------------|-----------------------------|
G|----------------------------|-----------------------------|
D|-----------------3-----0----|-----------------------------|
A|--2--2--2--2--2--3-----0----|2--2--2--2--2--2--2--2--2--2-|
E|--0--0--0--0--0--1----------|0--0--0--0--0--0--0--0--0--0-|

    
                                                                                                                                                                                                                                                                                                                                                                                                                                                                                                                                                                                                                                                                                                                                                                                                                                                                                                                                                                                                                                                                                                                                                                                              
E|-------------------------------------|-----------------------------|
B|-------------------------------------|-----------------------------|
G|-------------------------------------|-----------------------------|
D|-------------------------------------|-----------------------------|
A|--2--2--2--2--2----------------------|2--2--2--2--2--2--2--2--2--2-|
E|--0--0--0--0--0--0--3--2--1--3--2--1-|0--0--0--0--0--0--0--0--0--0-|

    
                                                                                                                                                                                                                                                                                                                                                                                                                                                                                                                                                                                                                                                                                                                                                                                                                                                                                                                                                                                                                                                                                                                                                                                              
E|-------------------------------------|-----------------------------|
B|-------------------------------------|-----------------------------|
G|-------------------------------------|-----------------------------|
D|-----------------------0--------0--2-|-----------------------------|
A|--2--2--2--2--2--0--2-----0--2-------|2--2--2--2--2--2--2--2--2--2-|
E|--0--0--0--0--0----------------------|0--0--0--0--0--0--0--0--0--0-|

    
                                                                                                                                                                                                                                                                                                                                                                                                                                                                                                                                                                                                                                                                                                                                                                                                                                                                                                                                                                                                                                                                                                                                                                                              
E|-------------------------------------|-----------------------------|
B|-------------------------------------|-----------------------------|
G|-------------------------------------|-----------------------------|
D|-------------------------------------|-----------------------------|
A|--2--2--2--2--2----------------------|2--2--2--2--2--2--2--2--2--2-|
E|--0--0--0--0--0--0--3--2--1--3--2--1-|0--0--0--0--0--0--0--0--0--0-|

    
                                                                                                                                                                                                                                                                                                                                                                                                                                                                                                                                                                                                                                                                                                                                                                                                                                                                                                                                                                                                                                                                                                                                                                                              
E|----------------------------|-----------------------------|
B|----------------------------|-----------------------------|
G|----------------------------|-----------------------------|
D|-----------------3-----0----|-----------------------------|
A|--2--2--2--2--2--3-----0----|2--2--2--2--2--2--2--2--2--2-|
E|--0--0--0--0--0--1----------|0--0--0--0--0--0--0--0--0--0-|

About Pandemonium (Killing Joke album) : Killing Joke's return after a four-year hiatus, the longest the band had taken since it was founded . It also featured the return of founding member Youth, who replaced Paul Raven . The vocal tracks for "Pandemonium", "Exorcism" and "Millennium" were recorded in the King's Chamber of The Great Pyramid of Giza . The session was filmed by director Shaun Pettigrew and features in Frontman Jaz Coleman considered Pandemonium to be a conceptual album . It incorporated his perspective on life, which is apparent in songs such as "Labyrinth" and "Pleasures of the Flesh It had a contribution from notable artists like Paul Raven. It had an affiliation to bands - Pandemonium,Killing Joke. Its music is influenced by genres - industrial metal post-punk arabic music electronica.

tabs and chords, guitar tabs, music transcription, music technology, deep learning, music information retrieval, transcribe into tabs & chords, chordify, music renditions, songsterr, reverbnation, tabulature, bollywood chords, ultimate guitar, yousician, guitar lessons, acoustic guitar, electric guitar, guitar tuner, 911 tabs