Bass Tabs for Killing Me

(/) Slide Up  (\) Slide Down  (h) Hammer On  (p) Pull Off  (b) Bend (r) Release (v) Vibrato (x) Muted

Tabs for Killing Me : 

Main Riff: 
F|--------------x--x--x-----------------------------------------x--x--x-----------------------------
C|--------------x--x--x-----------------------------------------x--x--x-----------------------------
G|--------------x--x--x-----------------------------------------x--x--x-----------------1-----------
D|--1-----1-----x--x--x--1-----1--1--0--4-----3-----1-----1-----x--x--x--1-----1--1--1-----4--3--4--

Chorus
F|--------------------------------------------------------------------x-----------------------------
C|--------------------------------------------------------------------x-----------------------------
G|---------------------------------------------------3/8--8-----8--8--x--8-----8--8--6-----6--6--6--
D|--4-----4-----4--4--4--3-----3--3--3-----3--3--3--------------------x-----------------------------

Third Rotation of the chorus
F|--------------------------------------------------------------------x-----------------------------
C|--6-----6-----6--6--6--5-----5--5--5-----5--5--5--------------------x-----------------------------
G|---------------------------------------------------3/8--8-----8--8--x--8-----8--8--6-----6--6--6--
D|--------------------------------------------------------------------x-----------------------------

tabs and chords, guitar tabs, music transcription, music technology, deep learning, music information retrieval, transcribe into tabs & chords, chordify, music renditions, songsterr, reverbnation, tabulature, bollywood chords, ultimate guitar, yousician, guitar lessons, acoustic guitar, electric guitar, guitar tuner, 911 tabs