Guitar Tabs for Mid Day Dawn

(/) Slide Up  (\) Slide Down  (h) Hammer On  (p) Pull Off  (b) Bend (r) Release (v) Vibrato (x) Muted

Tabs for Song : 

Song lyrics here
e|-------------------------------3-------------------------------------------|
B|----------1---------1-------------------------1----------------------------|
G|---------------------------------------------------------------------------|
D|---------------------------------------------------------------------------|
A|----------3-----------------------------------3----------------------------|
E|---------------------------------------------------------------------------|

e|------------------------------------------------------------------1--------|
B|-----3---1----------------------------------------4------------------------|
G|-------------------3---0---------------------------------------------------|
D|--------------------------------------------------1------------------------|
A|---------------------------------------------------------------------------|
E|-----------------------3---------------------------------------------------|

e|------3---------------3------------1-----------3---1----------------3------|
B|---------------------------------------------------------------4-----------|
G|---------------------------------------------------------------------------|
D|------1----------------------------0--------------------------------1------|
A|---------------------------------------------------------------------------|
E|---------------------------------------------------------------------------|

e|---------------1--------------------3------------------------------1-------|
B|------1/4---------------------------------4----------1/4-------------------|
G|---------------------------------------------------------------------------|
D|---------------0--------------------------1------------------------0-------|
A|---------------------------------------------------------------------------|
E----------------------------------------------------------------------------|

e|---------1---1----------------3-----------------------1---------------3----|
B|-----------------------4--------------------1/4----------------------------|
G|------------------------------1--------------------------------------------|
D|------------------------------------------------------0--------------------|
A|---------------------------------------------------------------------------|
E|---------------------------------------------------------------------------|

e|-----1---------------------------------------------------------------------|
B|--------------1-----3----------------------------3-------------------------|
G|--------------------0-----------0----------------0-------------------------|
D|-----0-----------------------0-------------0-------------------------------|
A|--------------------2--------------2-------------2-------------------------|
E|---------------------------------------------------------------------------|

e|-----------------------3---------------------------------------------------|
B|----1----------1-------------------------1---------------3-----------------|
G|---------0----------------0------3---------------0-------------------------|
D|-----------------------1---------------------------------------------------|
A|----3------------------------------------3---------------------------------|
E|---------------------------------------------------------------------------|

e|---------------------------------------------------------------1-----------|
B|----1----------------------------------------------------------------------|
G|---------3---0------------0--------3------4--------------------------------|
D|-----------------------------------------------------0---------------------|
A|------------------------------------------1--------------------------------|
E|-------------3-------------------------------------------------------------|

e|----3---------------3--------1---------3---1-----------3-------------------|
B|--------------------------------------------------4------------------------|
G|-------------0----------------------0--------------------------0-----------|
D|----1------------------------0-------------------------1-------------------|
A|---------------------------------------------------------------------------|
E|---------------------------------------------------------------------------|

e|-----------------1-----------3------------------------------------1--------|
B|-------1/4---------------------------------4-------------1/4---------------|
G|-----------------------0---------------------------0--------------0--------|
D|-----------------0-------------------------1-------------------------------|
A|---------------------------------------------------------------------------|
E|---------------------------------------------------------------------------|

e|-------1--1--------3-------------------1-------------3---------------------|
B|---0-----------4-----------------1/4---------------------------------------|
G|--------------------------0--------------------0---------------------------|
D|-------------------1-------------------0-----------------------------------|
A|---------------------------------------------------------------------------|
E|---------------------------------------------------------------------------|

e|---1-----------------------------------------------------------------------|
B|-------------------1------------3--------------------------------3---------|
G|-----------0--------------------0------------0-------------------0---------|
D|---0--------------------------------------0---------------0----------------|
A|--------------------------------2-----------------2--------------2---------|
E|---------------------------------------------------------------------------|

e|------------1-----3--------1---3/8---6--1--1-----------1-------------------|
B|-----4---------------------------------------------------------------------|
G|---------------------------------------------------------------------------|
D|-----1------0-----1------------------------0-----------0-------------------|
A|---------------------------------------------------------------------------|
E|---------------------------------------------------------------------------|

e|----------1-----4----3-----------------------------------------------------|
B|---4-------------------------4-----4------4-------4---3-----1---3----------|
G|---------------------------------------------------------------------------|
D|---1-------------------------------1------1--------------------------------|
A|---------------------------------------------------------------------------|
E|---------------------------------------------------------------------------|

e|--------------------1--------3-----------3----3-------------1------3/8-----|
B|----------4----------------------------------------------------------------|
G|---------------------------------------------------------------------------|
D|-----------------------------1-----------1---------------------------------|
A|---------------------------------------------------------------------------|
E|---------------------------------------------------------------------------|

e|-------6----1-----1-----------------------1---------4---3------------------|
B|-------------------------------4-----------------------------4-----4-------|
G|---------------------------------------------------------------------------|
D|------------------0------------1-----------------------------------1-------|
A|---------------------------------------------------------------------------|
E|---------------------------------------------------------------------------|

e|---------3--------------------1--------3-----------------------------------|
B|-----------------4------------------------------------------4--------------|
G|---------------------------------------------------------------------------|
D|---------------------------------------1-----------------------------------|
A|---------1-----------------------------------------------------------------|
E|---------------------------------------------------------------------------|

e|-------1-------------------3-----------------------------------------------|
B|---------------------------------------------------------------------------|
G|---------------------------------------------------------------------------|
D|---------------------------1-----------------------------------------------|
A|---------------------------------------------------------------------------|
E|---------------------------------------------------------------------------|

tabs and chords, guitar tabs, music contests, music covers, songsterr, reverbnation, renditions, tabulature, bollywood chords, ultimate guitar, yousician, guitar lessons, torrins, fender, gibson, acoustic guitar, electric guitar, youtube covers, gootar, guitar tuner, A-Z tabs, 911 tabs