Guitar Tabs for Metallica - The Call Of Ktulu

E|-----5--------------5--------5--------------5-----
B|-----------6-----5-----6-----------6-----5-----6--
G|--------7-----------------------7-----------------
D|--0-----------7-----------0-----------7-----------
A|--------------------------------------------------
E|--------------------------------------------------

E|-----6--------------6--------6--------------6-----
B|-----------6-----------6-----------6-----------6--
G|--------7--------9--------------7--------9--------
D|--0-----------8-----------0-----------8-----------
A|--------------------------------------------------
E|--------------------------------------------------

E|-----8--------------8--------8-----8--------8-----
B|-----------8-----------8-----------8-----------8--
G|--------9--------9--------------9--------9--------
D|--0-----------10----------0-----------10----------
A|--------------------------------------------------
E|--------------------------------------------------

E|-----5--------------5--------5--------------5-----
B|-----------6-----5-----6-----------6-----5-----6--
G|--------7-----------------------7-----------------
D|--0-----------7-----------0-----------7-----------
A|--------------------------------------------------
E|--------------------------------------------------

E|-----5--------------5--------5--------------5-----
B|-----------6-----5-----6-----------6-----5-----6--
G|--------7-----------------------7-----------------
D|--0-----------7-----------0-----------7-----------
A|--------------------------------------------------
E|--------------------------------------------------

E|-----6--------------6--------6--------------6-----
B|-----------6-----------6-----------6-----------6--
G|--------7--------9--------------7--------9--------
D|--0-----------8-----------0-----------8-----------
A|--------------------------------------------------
E|--------------------------------------------------

E|-----8--------------8--------8-----8--------8-----
B|-----------8-----------8-----------8-----------8--
G|--------9--------9--------------9--------9--------
D|--0-----------10----------0-----------10----------
A|--------------------------------------------------
E|--------------------------------------------------

E|-----5--------------5--------5--------------5--------------------
B|-----------6-----5-----6-----------6-----5-----5--6--------------
G|--------7-----------------------7--------------------------------
D|--0-----------7-----------0-----------7-----------0--------------
A|-----------------------------------------------------------------
E|-----------------------------------------------------------------

E|--------------0-----------------------0-----------
B|-----------0-----0-----------------0-----0--------
G|--------5-----------5-----------5-----------5-----
D|-----7-----------------------7-----------------7--
A|--0--------------------7--6-----------------------
E|--------------------------------------------------

E|--------------0-----------------------0-----------
B|-----------0-----0-----------------0-----0--------
G|--------5-----------5-----------5-----------5-----
D|-----7-----------------------7-----------------7--
A|--0--------------------7--6-----------------------
E|--------------------------------------------------

E|--------------0-----------------------0-----------
B|-----------0-----0-----------------0-----0--------
G|--------5-----------5-----------5-----------5-----
D|-----7-----------------------7-----------------7--
A|--0--------------------7--6-----------------------
E|--------------------------------------------------

E|--------------0-----------------------0-----------
B|-----------0-----0-----------------0-----0--------
G|--------5-----------5-----------5-----------5-----
D|-----7-----------------------7-----------------7--
A|--0--------------------7--6-----------------------
E|--------------------------------------------------

E|-----------1-----------1-----------1-----------5--
B|--------3-----------3-----------3-----------3-----
G|-----2-----------3-----------4-----------5--------
D|--0-----------0-----------0-----------0-----------
A|--------------------------------------------------
E|--------------------------------------------------

E|-----------1-----------1-----------1-----------5--
B|--------3-----------3-----------3-----------3-----
G|-----2-----------3-----------4-----------5--------
D|--0-----------0-----------0-----------0-----------
A|--------------------------------------------------
E|--------------------------------------------------

E|-----------1-----------1-----------1-----------5--
B|--------3-----------3-----------3-----------3-----
G|-----2-----------3-----------4-----------5--------
D|--0-----------0-----------0-----------0-----------
A|--------------------------------------------------
E|--------------------------------------------------

E|-----------1-----------1-----------1-----------5--
B|--------3-----------3-----------3-----------3-----
G|-----2-----------3-----------4-----------5--------
D|--0-----------0-----------0-----------0-----------
A|--------------------------------------------------
E|--------------------------------------------------

E|--------------0-----------------------0-----------
B|-----------0-----0-----------------0-----0--------
G|--------5-----------5-----------5-----------5-----
D|-----7-----------------------7-----------------7--
A|--0--------------------7--6-----------------------
E|--------------------------------------------------

E|--------------0-----------------------0-----------
B|-----------0-----0-----------------0-----0--------
G|--------5-----------5-----------5-----------5-----
D|-----7-----------------------7-----------------7--
A|--0--------------------7--6-----------------------
E|--------------------------------------------------

E|--------------0-----------------------0-----------
B|-----------0-----0-----------------0-----0--------
G|--------5-----------5-----------5-----------5-----
D|-----7-----------------------7-----------------7--
A|--0--------------------7--6-----------------------
E|--------------------------------------------------

E|--------------0-----------------------0-----------
B|-----------0-----0-----------------0-----0--------
G|--------5-----------5-----------5-----------5-----
D|-----7-----------------------7-----------------7--
A|--0--------------------7--6-----------------------
E|--------------------------------------------------

E|-----------1-----------1-----------1-----------5--
B|--------3-----------3-----------3-----------3-----
G|-----2-----------3-----------4-----------5--------
D|--0-----------0-----------0-----------0-----------
A|--------------------------------------------------
E|--------------------------------------------------

E|-----------1-----------1-----------1-----------5--
B|--------3-----------3-----------3-----------3-----
G|-----2-----------3-----------4-----------5--------
D|--0-----------0-----------0-----------0-----------
A|--------------------------------------------------
E|--------------------------------------------------

E|-----------1-----------1-----------1-----------5--
B|--------3-----------3-----------3-----------3-----
G|-----2-----------3-----------4-----------5--------
D|--0-----------0-----------0-----------0-----------
A|--------------------------------------------------
E|--------------------------------------------------

E|-----------1-----------1-----------1-----------5--
B|--------3-----------3-----------3-----------3-----
G|-----2-----------3-----------4-----------5--------
D|--0-----------0-----------0-----------0-----------
A|--------------------------------------------------
E|--------------------------------------------------
tabs and chords, guitar tabs, music transcription, music technology, deep learning, music information retrieval, transcribe into tabs & chords, chordify, music renditions, songsterr, reverbnation, tabulature, bollywood chords, ultimate guitar, yousician, guitar lessons, acoustic guitar, electric guitar, guitar tuner, 911 tabs