Guitar Tabs for Metallica - Fade To Black

Set the playing speed to 1 more than default.
E|--------------------------------------------------------------------------------------------------------------
B|--------------------------------------------------------------------------------------------------------------
G|--------------------0-----------------------0-----------------------0-----------------------2-----------------
D|-----------------4-----4-----4-----4-----4-----4-----4-----4-----4-----4-----4-----4-----2-----2-----2-----2--
A|--------------2-----------2-----5-----0-----------0-----5-----2-----------2-----5-----4-----------4-----0-----
E|--------------------------------------------------------------------------------------------------------------

E|--------------------------------------------------------------------------------------------------
B|--------------------------------------------------------------------------------------------------
G|--------0-----------------------0-----------------------0-----------------------2-----------------
D|-----4-----4-----4-----4-----4-----4-----4-----4-----4-----4-----4-----4-----2-----2-----2-----2--
A|--2-----------2-----5-----0-----------0-----5-----2-----------2-----5-----4-----------4-----0-----
E|--------------------------------------------------------------------------------------------------

E|--------------------------------------------------------------------------------------------------
B|--------------------------------------------------------------------------------------------------
G|--------0-----------------------0-----------------------0-----------------------2-----------------
D|-----4-----4-----4-----4-----4-----4-----4-----4-----4-----4-----4-----4-----2-----2-----2-----2--
A|--2-----------2-----5-----0-----------0-----5-----2-----------2-----5-----4-----------4-----0-----
E|--------------------------------------------------------------------------------------------------

E|--------------------------------------------------------------------------------------------------
B|--------------------------------------------------------------------------------------------------
G|--------0-----------------------0-----------------------0-----------------------2-----------------
D|-----4-----4-----4-----4-----4-----4-----4-----4-----4-----4-----4-----4-----2-----2-----2-----2--
A|--2-----------2-----5-----0-----------0-----5-----2-----------2-----5-----4-----------4-----0-----
E|--------------------------------------------------------------------------------------------------

E|--------------------------------------------------------------------------------------------------
B|--------------------------------------------------------------------------------------------------
G|--------0-----------------------0-----------------------0-----------------------2-----------------
D|-----4-----4-----4-----4-----4-----4-----4-----4-----4-----4-----4-----4-----2-----2-----2-----2--
A|--2-----------2-----5-----0-----------0-----5-----2-----------2-----5-----4-----------4-----0-----
E|--------------------------------------------------------------------------------------------------

E|--------------------------------------------------------------0--------------------
B|--------------------------------------------0--3---0h1--------------------1--------
G|--------------------------------1--------0---------2h---2------------0h2-----0-----
D|--------0-----------2--------2--------2------------2h------2-----2-----------2-----
A|-----3-----------2-----2--2--------2---------------0h------------------------3-----
E|--1--------1--4--------------------------------------------------------------------

E|--------0-----------------------------3--------------------------------------------0--------------
B|--1-----------------0-----------3--------------------------0---1\3------0h1--------------------1--
G|---------------0h2--------0-----------------2--0--0--------0---2\4------2h---2------------0h2-----
D|-----2-----2-----------------------0-----0-----------2------------------2h------2-----2-----------
A|--------------------------3-----------------------------2---------------0h------------------------
E|--------------------------------------------------0-----------------------------------------------

E|--------------0-----------------------------3-----------------------------------------------------
B|--------1-----------------0-----------3--------------------------------0------1\3------0h1--------
G|--0------------------0h2--------0------------------2p0--0--------------0------2\4------2h---2-----
D|--2--------2-----2-----------------------0-----0--------------2------------------------2h------2--
A|--3--------------------------------------------------------------2---------------------0h---------
E|--------------------------------3-----------------------0-----------------------------------------

E|--0--------------------------0--------------------------3--------------------------------------------
B|--------------1--1-----1-----------------0--------3-----------------------------0------1\3------0h1--
G|---------0h2-----0------------------0h2-----0-----------------2--0--0-----------0------2\4------2h---
D|-----2-----------2--------2-----2--------------------0-----0--------------2---------------------2h---
A|-----------------3-----------------------------------------------------------2------------------0h---
E|--------------------------------------------3-----------------------0--------------------------------

E|--------0--------------------------0--------------------------3-----------------------------------------
B|--------------------1--1-----1-----------------0--------3-----------------------------0------1\3---0h1--
G|--2------------0h2-----0------------------0h2-----0-----------------2--0--0-----------0------2\4---2h---
D|-----2-----2-----------2--------2-----2--------------------0-----0--------------2------------------2h---
A|-----------------------3-----------------------------------------------------------2---------------0h---
E|--------------------------------------------------3-----------------------0-----------------------------

E|--------0-----------------------------0--------------------------3-----------
B|--------------------1-----------1-----------------0--------3-----------------
G|--2------------0h2--------0------------------0h2-----0-----------------2--0--
D|-----2-----2--------------2--------2-----2--------------------0-----0--------
A|--------------------------2--------------------------------------------------
E|-----------------------------------------------------3-----------------------
Chorus
E|--------------------------------------------------------------------------------------------------------------------
B|--------------------------------------------------------------------------------------------------------------------
G|-----------------------------2-----2--2--------------5-----5--5--------------2-----2--2-----7-----9--9--------------
D|-----------------------------2-----2--2--------------5-----5--5--------------2-----2--2-----7-----9--9--------5--5--
A|--2--2--2--2--2--2--2--2-----0-----0--0-----------5--3-----3--3-----------5--0-----0--0-----5-----7--7--------3--2--
E|--0--0--0--0--0--0--0--0-----------------0--0--3-----------------0--0--3--------------------------------0--0--------

E|--------------------------------------------------------------------------------------------
B|--------------------------------------------------------------------------------------------
G|-----2-----2--2--------------5-----5--5--------------2-----2--2-----7-----9--9--------------
D|-----2-----2--2--------------5-----5--5--------------2-----2--2-----7-----9--9--------5--5--
A|-----0-----0--0-----------5--3-----3--3-----------5--0-----0--0-----5-----7--7--------3--2--
E|-----------------0--0--3-----------------0--0--3--------------------------------0--0--------

E|--------------------------------------------------------------------------------------------
B|--------------------------------------------------------------------------------------------
G|-----2-----2--2--------------5-----5--5--------------2-----2--2-----7-----9--9--------------
D|-----2-----2--2--------------5-----5--5--------------2-----2--2-----7-----9--9--------5--5--
A|-----0-----0--0-----------5--3-----3--3-----------5--0-----0--0-----5-----7--7--------3--2--
E|-----------------0--0--3-----------------0--0--3--------------------------------0--0--------

E|-----------------------------------------------------------------------------------------------------------
B|-----------------------------------------------------------------------------------------------------------
G|-----2-----2--2--------------5-----5--5--------------2-----2--2-----7-----9--9-----------------------------
D|-----2-----2--2--------------5-----5--5--------------2-----2--2-----7-----9--9--------5--5-----2-----------
A|-----0-----0--0-----------5--3-----3--3-----------5--0-----0--0-----5-----7--7--------3--2-----2-----------
E|-----------------0--0--3-----------------0--0--3--------------------------------0--0-----------0-----------

E|--------------------------------------------------------------------------------------------
B|--------------------------------------------------------------------------------------------
G|-----2-----2--2--------------5-----5--5--------------2-----2--2-----7-----9--9--------------
D|-----2-----2--2--------------5-----5--5--------------2-----2--2-----7-----9--9--------5--5--
A|-----0-----0--0-----------5--3-----3--3-----------5--0-----0--0-----5-----7--7--------3--2--
E|-----------------0--0--3-----------------0--0--3--------------------------------0--0--------

E|--------------------------------------------------------------------------------------------
B|--------------------------------------------------------------------------------------------
G|-----2-----2--2--------------5-----5--5--------------2-----2--2-----7-----9--9--------------
D|-----2-----2--2--------------5-----5--5--------------2-----2--2-----7-----9--9--------5--5--
A|-----0-----0--0-----------5--3-----3--3-----------5--0-----0--0-----5-----7--7--------3--2--
E|-----------------0--0--3-----------------0--0--3--------------------------------0--0--------

E|--------------------------------------------------------------------------
B|--------------------------------------------------------------------------
G|-----2-----2--2--------------5-----5--5--------------2-----2--2-----------
D|-----2-----2--2--------------5-----5--5--------------2-----2--2-----------
A|-----0-----0--0-----------5--3-----3--3-----------5--0-----0--0-----5--4--
E|-----------------0--0--3-----------------0--0--3--------------------3--2--

E|-----------------------------------------------------------------------------------------------------------
B|--------------------------------------------------------------------------------------------------------4--
G|---7\9-----9--9---------7\9-----9--12-11----------7-----7--7--------9--9--9--7--7--7--5--5--5--4--4--4-----
D|---7\9-----9--9---------7\9-----9--12-11----------7-----7--7-----------------------------------------------
A|---5\7-----7--7---------5\7-----7--10-9-----------5-----5--5-----------------------------------------------
E|-----------------------------------------------------------------------------------------------------------
Repeat 10x
E|-----------------------------------------------------------------------------------------------------------------
B|--------------------------------------------------------------------------------------------------------4--------
G|---7\9-----9--9---------7\9-----9--12-11----------7-----7--7--------9--9--9--7--7--7--5--5--5--4--4--4-----------
D|---7\9-----9--9---------7\9-----9--12-11----------7-----7--7-----------------------------------------------------
A|---5\7-----7--7---------5\7-----7--10-9-----------5-----5--5-----------------------------------------------------
E|-----------------------------------------------------------------------------------------------------------------
tabs and chords, guitar tabs, music transcription, music technology, deep learning, music information retrieval, transcribe into tabs & chords, chordify, music renditions, songsterr, reverbnation, tabulature, bollywood chords, ultimate guitar, yousician, guitar lessons, acoustic guitar, electric guitar, guitar tuner, 911 tabs