Guitar Tabs for Fade To Black Intro - Metallica Tabs

(/) Slide Up  (\) Slide Down  (h) Hammer On  (p) Pull Off  (b) Bend (r) Release (v) Vibrato

Fade To Black Metallica Intro Tabs (Ride the lightening)

Intro (Clean Guitar 1)
E|--------------------------
B|--------------------------
G|--------0-----------------
D|-----4-----4-----4-----4--
A|--2-----------2-----5-----
E|--------------------------

E|--------------------------
B|--------------------------
G|--------0-----------------
D|-----4-----4-----4-----4--
A|--0-----------0-----5-----
E|--------------------------

E|--------------------------
B|--------------------------
G|--------0-----------------
D|-----4-----4-----4-----4--
A|--2-----------2-----5-----
E|--------------------------


E|--------------------------
B|--------------------------
G|--------2-----------------
D|-----2-----2-----2-----2--
A|--4-----------4-----0-----
E|--------------------------

Guitar 2 (Distortion)

E|--------------------------------------------------
B|--------7--------7--8--10-----8/10-12-10-8--10----
G|-----7-----4--------------------------------------
D|--9-----------------------------------------------
A|--------------------------------------------------
E|--------------------------------------------------


E|--------------------------
B|--12-10--8\7--8--7-----7--
G|--------------------9-----
D|--------------------------
A|--------------------------
E|--------------------------


E|--------------------------------------
B|--7--8--7-----7-----5--3--------------
G|-----------9--------------2-----4-----
D|--------------------------------------
A|--------------------------------------
E|--------------------------------------


E|-----------------------------------
B|-----------------8--7-----8--8--10-
G|--7--6-----7--6--------------------
D|-----------------------------------
A|-----------------------------------
E|-----------------------------------
tabs and chords, guitar tabs, music contests, music covers, songsterr, reverbnation, renditions, tabulature, bollywood chords, ultimate guitar, yousician, guitar lessons, torrins, fender, gibson, acoustic guitar, electric guitar, youtube covers, gootar, guitar tuner, A-Z tabs, 911 tabs