Guitar Tabs for Mere Nishaan

(/) Slide Up  (\) Slide Down  (h) Hammer On  (p) Pull Off  (b) Bend (r) Release (v) Vibrato (x) Muted

Tabs for Song : 

Song lyrics here

    jhuki teri palko pe 
E|-----------------------------
B|-----------------1--0--------
G|--2--2--2--2--2--------2-----
D|-----------------------------
A|-----------------------------
E|-----------------------------
    
    mil jaae mujhe panah
E|-----------------------------
B|--------3--3--0-----0--------
G|--2--2-----------2-----2--0--
D|-----------------------------
A|-----------------------------
E|-----------------------------
 
    Palke Ghire Aansu Bhari
E|-----------------------------
B|--------------------0--0--0--
G|-----------------------------
D|--0--0--0--0-----0-----------
A|-----------------------------
E|-----------------------------
    
    Reh Jaaye Mere Nishan
E|--------------0-----------
B|--0--3--3--3-----0--1-----
G|--------------------------
D|--------------------------
A|--------------------------
E|--------------------------

    mere nishan    mere nishan    mere nishan   mere nishan a a a
E|-----------------------------------------------------------------
B|--0--1--0--------0--1--0-----------------------------------------
G|-----------2--------------0--------------0-----------------0--2--
D|--------------------------------0--0--0--------0--0--0--2--------
A|-----------------------------------------------------------------
E|-----------------------------------------------------------------

    mere nishaa a a a a a a a a n      mere nishaan    mere nishaaaaaan
E|--------------0--3--1--0--------------0--1--3--3-----1--------1--0--0--
B|--0--1--0-----------------3--1--0-----------------------3--3-----------
G|-----------2-----------------------------------------------------------
D|-----------------------------------------------------------------------
A|-----------------------------------------------------------------------
E|-----------------------------------------------------------------------
    sajde       me    tere     sar jhukta bas 
E|--0-----0--------------------------------------
B|-----3--------1--0--------------------1--1--0--
G|--------------------2--2-----2-----2-----------
D|-----------------------------------------------
A|-----------------------------------------------
E|-----------------------------------------------
    chahat  ki  hai  ye     dastan
E|-----------0--------------------------
B|--3--3--------3--1--0-----0--0---0h1--
G|--------------------------------------
D|--------------------------------------
A|--------------------------------------
E|--------------------------------------
    Rooth     gaya       mera     rub   jo mujh say       to mita de    vo       mere      nishaan..
E|--0--------0--3--0-----------------------------------------------------------0-----------------
B|-----3--3-----------3--3--3-----1-----0--1--3--3--3-----0--3--3-----3--3--3-----3--1--0---0h1--
G|-----------------------------------------------------------------------------------------------
D|-----------------------------------------------------------------------------------------------
A|-----------------------------------------------------------------------------------------------
E|-----------------------------------------------------------------------------------------------
tabs and chords, guitar tabs, music transcription, music technology, deep learning, music information retrieval, transcribe into tabs & chords, chordify, music renditions, songsterr, reverbnation, tabulature, bollywood chords, ultimate guitar, yousician, guitar lessons, acoustic guitar, electric guitar, guitar tuner, 911 tabs