Guitar Tabs for Mere Shamne Wali Khidki

Barsaat Bhi Aakar Chali Gayi
Baadal Bhi Garaj Kar Baras Gaye
E|--------------------------------------------------------------------------------------------------------
B|--------4-----4---4---4h-6p4---------------------4h-6p4--4--------------------------4-------------------
G|-----5-----------------------6--5--3--5-----6--------------3-----3--3-----5--6-----------6-----5--5--5--
D|--6-----------------------------------------------------------------------------------------------------
A|--------------------------------------------------------------------------------------------------------
E|--------------------------------------------------------------------------------------------------------


Par Uski Ek Jhalak Ko Ham
Ai Husn Ke Maalik Taras Gaye
E|-----------------------------------------------------------------------------------------------------------
B|-----------4-----4---4---4h-6p4---------------------4h-6p4--4--------------------------4--------------------
G|--------5-----------------------6--5--3--5-----6--------------3-----3--3-----5--6-----------6-----5--5--5--
D|-----6-----------------------------------------------------------------------------------------------------
A|-----------------------------------------------------------------------------------------------------------
E|-----------------------------------------------------------------------------------------------------------

Kab Pyaas Bujhegi Aankhon Ki
E|-----------------------------------------------------
B|-----------------------------------4-----------------
G|--------3--------------3-----3--5--------5-----3-----
D|-----6-----5-----5--6--------------------------------
A|-----------------------------------------------------
E|-----------------------------------------------------

Din Raat Ye Dukhda Rehta Hai
E|-----------------------------------------------
B|--------4--4-----------------------------------
G|--3--3--------6--6--5--5--3--3-----------------
D|--------------------------------6--6--6--6---6--
A|-----------------------------------------------
E|-----------------------------------------------

Mere Saamne Waali Khidki Mein
Ek Chaand Ka Tukda Rehta Hai
E|--------------------------------------------------------------------------------------------------
B|--------------------------------------------------------------------------------------------------
G|--------3---3h5-----3--------------------3--3--3--------3---3h5-----3-----------------------------
D|-----6-----------------6-----6--5--3-----------------6-----------------6-----6--5--3-----6-----6--
A|--------------------------------------------------------------------------------------------------
E|--------------------------------------------------------------------------------------------------

Afsos Ye Hai Ke Vo Hamse
Kuchh Ukhda Ukhda Rehta Hai
E|-----------------------------------------------------------------------------------------------------
B|-----------------------------------------------------------------------------------------------------
G|-----------5--------3--5-----------6-----6--5--6--------------------------3--5-----------------------
D|-----------------------------3--3--------------------3--3--3--3--5-----6-----------6--6--6-----6-----
A|-----6--6--------------------------------------------------------------------------------------------
E|-----------------------------------------------------------------------------------------------------

tabs and chords, guitar tabs, music contests, music covers, songsterr, reverbnation, renditions, tabulature, bollywood chords, ultimate guitar, yousician, guitar lessons, torrins, fender, gibson, acoustic guitar, electric guitar, youtube covers, gootar, guitar tuner, A-Z tabs, 911 tabs