Guitar Tabs for Mere Rashk E Qamar - Single String Tabs

Single String Tabs for Song : Mere Rashk E Qamar

Mere Rashk E Qamar 
E|--------------------
B|--------------------
G|--------------------
D|--13-12-10-10-10-10-
A|--------------------
E|--------------------

Tu Ne Pehli Nazar
E|--------------------
B|--------------------
G|--------------------
D|--15-12-10-8--7--8--
A|--------------------
E|--------------------

Jab Nazar Se Milaayi Maza Aagaya
E|--------------------------------------
B|--------------------------------------
G|--------------------------------------
D|--3--5--5--6--6--6--10-13-6--8--6--5--
A|--------------------------------------
E|--------------------------------------

Mere Rashk E Qamar Tu Ne Pehli Nazar
E|-----------------------------------------------
B|-----------------------------------------------
G|-----------------------------------------------
D|--10-12-13-15-15-15-13-15-8--10-12-13-13-13-13-
A|-----------------------------------------------
E|-----------------------------------------------

Jab Nazar Se Milaayi Maza Aagaya
E|-----------------------------------------------------
B|-----------------------------------------------------
G|-----------------------------------------------------
D|--13-10-8--6--6--6--6--8--8--12-13-15-15-12-13-12-10-
A|-----------------------------------------------------
E|-----------------------------------------------------

Barf Si Gir Gayi
E|--------------------
B|--------------------
G|--------------------
D|--13-12-10-10-10-10-
A|--------------------
E|--------------------

Kaam He Kar Gayi
E|--------------------
B|--------------------
G|--------------------
D|--15-12-10-8--7--8--
A|--------------------
E|--------------------

Aag Aisee Lagaayi Maza Aagaya
E|--------------------------------------
B|--------------------------------------
G|--------------------------------------
D|--3--5--5--6--6--6--10-13-6--8--6--5--
A|--------------------------------------
E|--------------------------------------

Jaam Mein Ghoul Kar
E|--------------------
B|--------------------
G|--------------------
D|--13-12-10-10-10-10-
A|--------------------
E|--------------------

Husan Ki Mastiyaan
E|--------------------
B|--------------------
G|--------------------
D|--15-12-10-8--7--8--
A|--------------------
E|--------------------

Chaandni Muskurai Maza Aagaya
E|--------------------------------------
B|--------------------------------------
G|--------------------------------------
D|--3--5--5--6--6--6--10-13-6--8--6--5--
A|--------------------------------------
E|--------------------------------------

Be Hijabaana Wo Saamne Aagaye
E|-----------------------------------------------
B|-----------------------------------------------
G|-----------------------------------------------
D|--10-12-13-15-15-15-13-15-8--10-12-13-13-13-13-
A|-----------------------------------------------
E|-----------------------------------------------

Aur Jawaani Jawaani Se Takra Gayi
E|-----------------------------------------------------
B|-----------------------------------------------------
G|-----------------------------------------------------
D|--13-10-8--6--6--6--6--8--8--12-13-15-15-12-13-12-10-
A|-----------------------------------------------------
E|-----------------------------------------------------

Aankh Unki Laree
E|--------------------
B|--------------------
G|--------------------
D|--13-12-10-10-10-10-
A|--------------------
E|--------------------

Yoon Meri Aankh Se
E|--------------------
B|--------------------
G|--------------------
D|--15-12-10-8--7--8--
A|--------------------
E|--------------------

Daikh Kar Ye Laraai Maza Aagaya
E|--------------------------------------
B|--------------------------------------
G|--------------------------------------
D|--3--5--5--6--6--6--10-13-6--8--6--5--
A|--------------------------------------
E|--------------------------------------
tabs and chords, guitar tabs, music contests, music covers, songsterr, reverbnation, renditions, tabulature, bollywood chords, ultimate guitar, yousician, guitar lessons, torrins, fender, gibson, acoustic guitar, electric guitar, youtube covers, gootar, guitar tuner, A-Z tabs, 911 tabs