Guitar Tabs for Mere Naam Tu

Flute intro
E|--------------------9-----11----12----11-11h12p11-9--------
B|---7/9--7--9--7--9-----------------------------------9-----
G|-----------------------------------------------------------
D|-----------------------------------------------------------
A|-----------------------------------------------------------
E|-----------------------------------------------------------


E|--------------------7---7/9--7--6--
B|---7/9--7--9--7--9-----------------
G|-----------------------------------
D|-----------------------------------
A|-----------------------------------
E|-----------------------------------


E|-----------------------9-----11----12----11-11h12p11-9--------
B|------7/9--7--9--7--9-----------------------------------9-----
G|--------------------------------------------------------------
D|--------------------------------------------------------------
A|--------------------------------------------------------------
E|--------------------------------------------------------------


E|--------------------------------------
B|---7/9--7-----7--9---7h-9p7-----------
G|-----------9-----------------9--8--6--
D|--------------------------------------
A|--------------------------------------
E|--------------------------------------

synth intro
E|-----------------------------------------------------------
B|------4/5-----5--4--2-----2--4--2-----5--4--2-----2--4--2--
G|-----------------------4-----------------------4-----------
D|-----------------------------------------------------------
A|-----------------------------------------------------------
E|-----------------------------------------------------------


E|-----------------4--4--2-----4--2--------------------
B|--5--4--2-----2-----------5--------5--4---4p2--------
G|-----------4-----------------------------------4-----
D|-----------------------------------------------------
A|-----------------------------------------------------
E|-----------------------------------------------------


woh rang bhi...
E|-----------------------------------------
B|---2/5--4---5p4------2/5--4---5p4--------
G|-----------------6-----------------6-----
D|-----------------------------------------
A|-----------------------------------------
E|-----------------------------------------


milta na jo...
E|--------------------------------------------------------------------------------
B|--------4-----------------------------------------------------------------------
G|--4--6-----4-----4--6--------6--4-----------------------------------------------
D|-----------------------7-----------6-----6--4-----4---4h6------6h-7p6--4---4h6--
A|-----------------------------------------------7--------------------------------
E|--------------------------------------------------------------------------------

woh khusboo...
E|-----------------------------------------
B|---2/5--4---5p4------2/5--4---5p4--------
G|-----------------6-----------------6-----
D|-----------------------------------------
A|-----------------------------------------
E|-----------------------------------------

tehre na jo...
E|--------------------------------------------------------------------------------
B|--------4-----------------------------------------------------------------------
G|--4--6-----4-----4--6--------6--4-----------------------------------------------
D|-----------------------7-----------6-----6--4-----4---4h6------6h-7p6--4---4h6--
A|-----------------------------------------------7--------------------------------
E|--------------------------------------------------------------------------------

Tere aage ye...
E|--------------------------------------------------------
B|--------------------------------------------------------
G|-----3--4--6--4--6--4--4--6--4--6--4-----4-----4--------
D|--6-----------------------------------6-----6-----6-----
A|--------------------------------------------------------
E|--------------------------------------------------------

mere bin tu...
E|--------------------------------------------------------
B|--------------------------------------------------------
G|-----3--4--6--4--6--4--4--6--4--6--3-----4-----4--------
D|--6-----------------------------------6-----6-----6-----
A|--------------------------------------------------------
E|--------------------------------------------------------

ab ye zaahir..
E|--------------------------------------------------------------------
B|--------------4-----4-----------------------------------------------
G|-----3--4--6-----6-----6---4p3--3-----3--4--6--6------6h-8p6--5-----
D|--6-----------------------------------------------------------------
A|--------------------------------------------------------------------
E|--------------------------------------------------------------------

zab tak jahan me...
E|--------------------9-----11-12-11-11h12p11-9--------
B|---7/9--7--9--7--9-----------------------------9-----
G|-----------------------------------------------------
D|-----------------------------------------------------
A|-----------------------------------------------------
E|-----------------------------------------------------

tab tak mere naam...
E|--------------------7---7/9--7--6--
B|---7/9--7--9--7--9-----------------
G|-----------------------------------
D|-----------------------------------
A|-----------------------------------
E|-----------------------------------

jab tak jahan me...
E|-----------------------9--11-12-11-11h12p11-9--------
B|------7/9--7--9--7--9--------------------------9-----
G|-----------------------------------------------------
D|-----------------------------------------------------
A|-----------------------------------------------------
E|-----------------------------------------------------

tab tak mere...
E|--------------------------------------
B|---7/9--7-----7--9---7h-9p7-----------
G|-----------9-----------------9--8--6--
D|--------------------------------------
A|--------------------------------------
E|--------------------------------------

uljahn bhi..
E|--------------------------------------------------------
B|--------------------------------------------------------
G|-----4---4/6--6---4h-6p4--------4---4/6--6---4h-6p4-----
D|--------------------------6--------------------------6--
A|--------------------------------------------------------
E|--------------------------------------------------------

uljahn ka hal...
E|-----------------------------------
B|-----------------------------------
G|--------3--4--4--4--4--------3-----
D|--4--6-----------------------------
A|-----------------------------------
E|-----------------------------------


thoda sa ziddi...
E|-----------------------------------------------------
B|-----------------------------------------------------
G|--4---4/6--6---4h-6p4--------4---4/6--6---4h-6p4-----
D|-----------------------6--------------------------6--
A|-----------------------------------------------------
E|-----------------------------------------------------

thoda pagal bhi
E|--------------------------
B|--------------------------
G|--------3--4--4--4--4-----
D|--4--6--------------------
A|--------------------------
E|--------------------------

barkha bijli...
E|-----------------------------------------------------------------------------------------
B|--------------------------------------------------4--5---------5/7--5---4h-5p4-----------
G|--------5-----5--5--6-----5--5--6-----5--5--6--------------6--------------------6-----5--
D|---4/6-----------------------------------------------------------------------------------
A|-----------------------------------------------------------------------------------------
E|-----------------------------------------------------------------------------------------

sachhi tu hai...
E|-----------------------------------------------------------------------------------------
B|--------------------------------------------------4--5---------5/7--5---4h-5p4-----------
G|--------5-----5--5--6-----5--5--6-----5--5--6--------------6--------------------6-----5--
D|---4/6-----------------------------------------------------------------------------------
A|-----------------------------------------------------------------------------------------
E|-----------------------------------------------------------------------------------------
tabs and chords, guitar tabs, music transcription, music technology, deep learning, music information retrieval, transcribe into tabs & chords, chordify, music renditions, songsterr, reverbnation, tabulature, bollywood chords, ultimate guitar, yousician, guitar lessons, acoustic guitar, electric guitar, guitar tuner, 911 tabs