Guitar Tabs for Mercy

(/) Slide Up  (\) Slide Down  (h) Hammer On  (p) Pull Off  (b) Bend (r) Release (v) Vibrato

Tabs for Song : 

Song lyrics here
E|-------------------------------------------------------------|
B|-----------3-------------------------------------------------|
G|------2/4------2/4---------2h4-------------------------------|
D|---------------------------------2/4--2---------0h-2/4---0h2-|
A|--------------------------------------------2------------0h--|
E|--0--------------------3-------------------------------------|

E|-----------------------------------------------------------|
B|-----------------------------------------------------------|
G|-----------------------------------------------------------|
D|-----4--2---------0h2--2--------2--2--0---------2/4--0-----|
A|-----------------------------2--------------0-----------2--|
E|--0-----------3--------------------------------------------|

Song lyrics here
E|--------------------------------------------------------------------|
B|-----0--------------------------------------------------------------|
G|--------2---------0h2-----------4--4--2------2/4-----2--------------|
D|-----------------------4---------------------------------2/4--2--0--|
A|-----------------------------2---------------0/---------------------|
E|--0-----------3-----------------------------------------------------|

E|---------------------------------------------------------0h2--0----|
B|-----------------------------------------------------3-----------3-|
G|-----------0-----------------------4--4--2--------4----------------|
D|------2/4------------0h2--2----------------------------------------|
A|--------------------------------2-----------------0----------------|
E|--0--------------3-------------------------------------------------|

E|--0---------------------0h2--2-----0--------0--0-----------0--2--0---------------------0h2--2-----0--------0--0----------|
B|-----3--3--0--------0-----------------3--3-----------0--3--------------3--3--0-----------------------3--3----------------|
G|--------------------------------------------------2---------------------------------0-----------------------------2------|
D|-------------------------------------------------------------------------------------------------------------------------|
A|-----------------------------------2-----------0--------------------------------------------------2-----------0----------|
E|--0--------------3-----------------------------------------------0--------------3----------------------------------------|

E|--------------------------------2--2-----2--0-----/2-0--|
B|------3h5--5--------3--3--------------------------------|
G|--------------------------------------------------------|
D|--------------------------------------------------------|
A|-----------------------------2-----------0--------------|
E|--0--------------3--------------------------------------|

E|--------------------------------2--2-----2--0---0h2---0---|------------|
B|------3h5--5--------3--3--------------------------------3-|-2h3--2-----|
G|----------------------------------------------------------|---------2--|
D|----------------------------------------------------------|------------|
A|-----------------------------2-----------0----------------|------------|
E|--0--------------3----------------------------------------|------------|

|

Add more lines by placing cursor below and adding notes
tabs and chords, guitar tabs, music contests, music covers, songsterr, reverbnation, renditions, tabulature, bollywood chords, ultimate guitar, yousician, guitar lessons, torrins, fender, gibson, acoustic guitar, electric guitar, youtube covers, gootar, guitar tuner, A-Z tabs, 911 tabs