Ukulele Tabs for Menuet 4/4

(/) Slide Up  (\) Slide Down  (h) Hammer On  (p) Pull Off  (b) Bend (r) Release (v) Vibrato (x) Muted

Tabs for Song : Menuet I
BPM : 200

Song lyrics here
A|--------0--1--0-----5-----0-----3-----1-----1-----------0--1--0-----5-----0-----1--0--------------
E|--3-----------------------------------------------3-----------------------------------3-----------
C|--------------------------------------------------------------------------------------------------
G|--------------------------------------------------------------------------------------------------

A|--------0--1--0-----5-----0-----3-----1-----1-----------0--1--0-----5-----0-----1--0--------------
E|--3-----------------------------------------------3-----------------------------------3-----------
C|--------------------------------------------------------------------------------------------------
G|--------------------------------------------------------------------------------------------------



Song lyrics here
A|--
E|--
C|--
G|--

Paste any tab in acousterr's tab maker and we'll play it !!!
Now supports capo and sound effects for vibrato/pull-off/hammer/bends/mutes etc !!! Checkout help section
tabs and chords, guitar tabs, music transcription, music technology, deep learning, music information retrieval, transcribe into tabs & chords, chordify, music renditions, songsterr, reverbnation, tabulature, bollywood chords, ultimate guitar, yousician, guitar lessons, acoustic guitar, electric guitar, guitar tuner, 911 tabs