Guitar Tabs for Mencari Cinta Sejati

(/) Slide Up  (\) Slide Down  (h) Hammer On  (p) Pull Off  (b) Bend (r) Release (v) Vibrato (x) Muted

Tabs for Song : 

Song lyrics here
E|-----------------------------------------------------------------------------------
B|-----------------------------------------------------------------------------------
G|--5--4--5-----5--4--5-----4--2--------------------4--2--4-----4--2--4--------------
D|-----------2--------------------5--3--3--------------------0-----------5--3--2--2--
A|-----------------------------------------------------------------------------------
E|-----------------------------------------------------------------------------------

E|-----------------------------------------------------------------------
B|-----------------------------------------------------------------------
G|--2-----2--------2-----2---------------2\5--------5--5--4--2--0--2--4--
D|-----5-----0--------5-----5--3--2--------------------------------------
A|-----------------------------------5-----------------------------------
E|-----------------------------------------------------------------------

E|-----------------------------------------------------------------------------------------------------
B|--------5--6-----------------------6--5--5-----------5---5p6--5--------------------6--5--------------
G|-----------------------------4--7--------------------------------7--5--4------------------5\7--5--5--
D|---5\7--------7--------7--7---------------------------------------------------5\7--------------------
A|-----------------------------------------------------------------------------------------------------
E|-----------------------------------------------------------------------------------------------------

E|--
B|--
G|--
D|--
A|--
E|--

Song lyrics here
E|--
B|--
G|--
D|--
A|--
E|--

Paste any tab in acousterr's tab maker and we'll play it !!!
Now supports capo and sound effects for vibrato/pull-off/hammer/bends/mutes etc !!! Checkout help section
tabs and chords, guitar tabs, music transcription, music technology, deep learning, music information retrieval, transcribe into tabs & chords, chordify, music renditions, songsterr, reverbnation, tabulature, bollywood chords, ultimate guitar, yousician, guitar lessons, acoustic guitar, electric guitar, guitar tuner, 911 tabs