Guitar Tabs for Cinta - Flop Poppy

(/) Slide Up  (\) Slide Down  (h) Hammer On  (p) Pull Off  (b) Bend (r) Release (v) Vibrato (x) Muted

Tabs for Song : 

Song lyrics here
E|--------10-8--7--------------------------------------------10-8--7-----------------------10p12-10-
B|-----8-----------8--------------------------------------8-----------8-----------------------------
G|--7--------------------7--5--4-----------------------7-----------------7--5--4---4\5--------------
D|--------------------------------5-----------------------------------------------------------------
A|--------------------------------------5--3--2-----------------------------------------------------
E|--------------------------------------------------------------------------------------------------

Chorus :
E|--------------------------------------------10-------8--7--8--7--8------7p8--7--------
B|---------------------------7p8--7-----7--8--------------------------------------8-----
G|-----------------7--9--------------9-----------------------------------------------7--
D|--------5---7\9-----------------------------------------------------------------------
A|--5--7--------------------------------------------------------------------------------
E|--------------------------------------------------------------------------------------

E|--------------------------------------------------
B|--------------------------------------------------
G|--5--4--5--4--------------------------------------
D|--------------5------------5\7---7b7--5-----------
A|-----------------------5--------------------------
E|--------------------------------------------------

Solo : :
E|--------------------------------------------10-------8--7--8--7--8------7p8--7--------
B|---------------------------7p8--7-----7--8--------------------------------------8-----
G|-----------------7--9--------------9-----------------------------------------------7--
D|--------5---7\9-----------------------------------------------------------------------
A|--5--7--------------------------------------------------------------------------------
E|--------------------------------------------------------------------------------------

E|-----------10-10-10----8--7--8------7p8--7--------------------
B|--8--8--8-----------------------------------8-----------------
G|-----------------------------------------------7--5---4\5--4--
D|--------------------------------------------------------------
A|--------------------------------------------------------------
E|--------------------------------------------------------------


E|--------10----8--------7--8--7--------
B|-----8-----8-----8--------------8-----
G|--7-----------------7--------------7--
D|--------------------------------------
A|--------------------------------------
E|--------------------------------------

Paste any tab in acousterr's tab maker and we'll play it !!!
Now supports capo and sound effects for vibrato/pull-off/hammer/bends/mutes etc !!! Checkout help section
tabs and chords, guitar tabs, music transcription, music technology, deep learning, music information retrieval, transcribe into tabs & chords, chordify, music renditions, songsterr, reverbnation, tabulature, bollywood chords, ultimate guitar, yousician, guitar lessons, acoustic guitar, electric guitar, guitar tuner, 911 tabs