Melonhead - Guitar Tabs

(/) Slide Up  (\) Slide Down  (h) Hammer On  (p) Pull Off  (b) Bend (r) Release (v) Vibrato (x) Muted

Tabs for Song : 
BPM 225

Verse x5
E|--------------------------------------------------
B|--------------------------------------------------
G|--------------------------------------------------
D|--------------------------------------------------
A|--5--5--5--5--3--3--3--3--------------------------
E|--------------------------5--5--5--5--3--3--3--3--

Chorus x2
E|--------------------------------------------
B|--------------------------------------------
G|--------------------------------------------
D|--------------------------------------------
A|--5--5--5--3-----------3--3--3--5-----------
E|--------------5--5--5--------------3--3--3--

Verse x3
E|--------------------------------------------------
B|--------------------------------------------------
G|--------------------------------------------------
D|--------------------------------------------------
A|--5--5--5--5--3--3--3--3--------------------------
E|--------------------------5--5--5--5--3--3--3--3--

Chorus x2

E|--------------------------------------------
B|--------------------------------------------
G|--------------------------------------------
D|--------------------------------------------
A|--5--5--5--3-----------3--3--3--5-----------
E|--------------5--5--5--------------3--3--3--


E|-----------------------------
B|-----------------------------
G|-----------------------------
D|-----------------------------
A|-----------------------------
E|--3--3--3--3--3--3--3--3--3--

Bridge x3
E|--------------------------------------------------------------
B|--------------------------------------------------------------
G|--------------------------------------------------------------
D|--------------------------------------------------------------
A|--------------------------------3--5--5--5--5--3--5--5--5--5--
E|--3--5--5--5--5--3--5--5--5--5--------------------------------


E|-----------------------
B|-----------------------
G|-----------------------
D|-----------------------
A|--5--5--5--5--5--5--5--
E|-----------------------

E|-----------------------------------------------------------------------------------
B|-----------------------------------------------------------------------------------
G|-----------------------------------------------------------------------------------
D|-----------------------------------------------------------------------------------
A|--5--5--5--5--3-----------3--3--3--5-----------5--5--5--3-----------3--3--3--5-----
E|-----------------5--5--5--------------3--3--3--------------5--5--5--------------3--

Use manual mode to free up cursor. Paste any tab in acousterr tab maker and we'll play it !!!
tabs and chords, guitar tabs, music transcription, music technology, deep learning, music information retrieval, transcribe into tabs & chords, chordify, music renditions, songsterr, reverbnation, tabulature, bollywood chords, ultimate guitar, yousician, guitar lessons, acoustic guitar, electric guitar, guitar tuner, 911 tabs