Guitar Tabs for Melodi Tengah Asal Kau Bahagia Versi Akustik

(/) Slide Up  (\) Slide Down  (h) Hammer On  (p) Pull Off  (b) Bend (r) Release (v) Vibrato (x) Muted

Tabs for Song : 

Song lyrics here
E|--------------------------------------------------------------------------------------------------------------
B|-----------------------------------------------9------------------------------------------------------7\9--7--
G|---------------9\11----8--9--------------6--9-----9--11-8--9-----------8--9--11-8--9-----------6--9-----------
D|---6h7-----9-----------------9--6-----7--------------------------9--11-------------------7--9-----------------
A|--------------------------------------------------------------------------------------------------------------
E|--------------------------------------------------------------------------------------------------------------


Song lyrics here
E|-----------------------------------------------------------------------------------------
B|-----------------------------------------------9--------------------------------9---9h10-
G|---------------9/11----8--9--------------6--9-----9--11-8--9-----------8--9--11----------
D|---6h7-----9-----------------9--6-----7--------------------------9--11-------------------
A|-----------------------------------------------------------------------------------------
E|-----------------------------------------------------------------------------------------

E|--------------------------------------------
B|--10p9--------------12\14----14-14-14-14/12-
G|--------9---9\11----------------------------
D|--------------------------------------------
A|--------------------------------------------
E|--------------------------------------------

Paste any tab in acousterr's tab maker and we'll play it !!!
Now supports capo and sound effects for vibrato/pull-off/hammer/bends/mutes etc !!! Checkout help section
tabs and chords, guitar tabs, music transcription, music technology, deep learning, music information retrieval, transcribe into tabs & chords, chordify, music renditions, songsterr, reverbnation, tabulature, bollywood chords, ultimate guitar, yousician, guitar lessons, acoustic guitar, electric guitar, guitar tuner, 911 tabs