Guitar Tabs for Mein rahun ya na rahu

Tabs for Song : Mein rahu ya na rahun

mein rahu ya na rahu
E|--------------------------------
B|--2--2-----1-----------2--------
G|--------------1--3--------3-----
D|--------------------------------
A|--------------------------------
E|--------------------------------

tum mujhme kahin baki rahna
E|-----------------------------------------
B|-----------------------------------------
G|--------1--1-----1--1--3--1-----1--3-----
D|--4--3-----------------------4-----------
A|-----------------------------------------
E|-----------------------------------------

mujhe neend aye jo aakhiri
E|-----------------------------------------
B|--2--2--2-----2--1--1-----------2--------
G|-----------------------1--3--------3-----
D|-----------------------------------------
A|-----------------------------------------
E|-----------------------------------------

tum khwabon mein aate rahna
E|-----------------------------------------
B|-----------------------------------------
G|--------1--1-----1--1--3--1-----1--3-----
D|--4--3-----------------------4-----------
A|-----------------------------------------
E|-----------------------------------------

bas itna hai tumse kahna
E|--------1--------1--------------------
B|--2--4-----4--4-----2-----------------
G|-----------------------1--1---1h3-----
D|--------------------------------------
A|--------------------------------------
E|--------------------------------------

bas itna hai tumse kahna
E|--------------------------------------
B|--------------------------------------
G|--3--4--3--1-----1--------4--3--3-----
D|--------------------4--3--------------
A|--------------------------------------
E|--------------------------------------

bas itna hai tumse kahna
E|--------1--------1--------------------
B|--2--4-----4--4-----2-----------------
G|-----------------------1--1---1h3-----
D|--------------------------------------
A|--------------------------------------
E|--------------------------------------

bas itna hai tumse kahna
E|--------------------------------------
B|--------------------------------------
G|--3--4--3--1-----1--------4--3--3-----
D|--------------------4--3--------------
A|--------------------------------------
E|--------------------------------------

mein rahu ya na rahu
E|--------------------------------
B|--2--2-----1-----------2--------
G|--------------1--3--------3-----
D|--------------------------------
A|--------------------------------
E|--------------------------------

tum mujhme kahin baki rahna
E|-----------------------------------------
B|-----------------------------------------
G|--------1--1-----1--1--3--1-----1--3-----
D|--4--3-----------------------4-----------
A|-----------------------------------------
E|-----------------------------------------

kisi roj barish jo aaye
E|--------------------------------------
B|-----2--2---------------------2/4-----
G|--3-----------3--1--1-----1-----------
D|-----------------------4--------------
A|--------------------------------------
E|--------------------------------------

samajh lena bondoon me mein hu
E|--------------------------1--------------
B|--4--4--2--4--4-----4--4-----4--4--2-----
G|-----------------------------------------
D|-----------------------------------------
A|-----------------------------------------
E|-----------------------------------------

subh dhoop tumko sataye
E|--------------------------------------
B|-----2--2---------------------2/4-----
G|--3-----------3--1--1-----1-----------
D|-----------------------4--------------
A|--------------------------------------
E|--------------------------------------

samajh lena kirno me mein hu
E|--------------------------1--------------
B|--4--4--2--4--4-----4--4-----4--4--2-----
G|-----------------------------------------
D|-----------------------------------------
A|-----------------------------------------
E|-----------------------------------------

kuch kahun ya na kahu
E|--------------------------------
B|--2--2-----1-----------2--------
G|--------------1--3--------3-----
D|--------------------------------
A|--------------------------------
E|--------------------------------

tum mujhko sada sunte rahna
E|-----------------------------------------
B|-----------------------------------------
G|--------1--1-----1--1--3--1-----1--3-----
D|--4--3-----------------------4-----------
A|-----------------------------------------
E|-----------------------------------------

bas itna hai tumse kahna
E|--------1--------1--------------------
B|--2--4-----4--4-----2-----------------
G|-----------------------1--1---1h3-----
D|--------------------------------------
A|--------------------------------------
E|--------------------------------------

tabs and chords, guitar tabs, music transcription, music technology, deep learning, music information retrieval, transcribe into tabs & chords, chordify, music renditions, songsterr, reverbnation, tabulature, bollywood chords, ultimate guitar, yousician, guitar lessons, acoustic guitar, electric guitar, guitar tuner, 911 tabs