Guitar Tabs for Mein jahan rahu

Tabs for Song : Mein Jaha Rahu

mein jahan rahu
E|--------------------
B|--------------------
G|-----0--2--0--2-----
D|--3-----------------
A|--------------------
E|--------------------

mein kahin bhi rahu
E|-----------------------------------
B|-----1-----------------------------
G|--2--------2--0-----------2--0-----
D|-----------------3--0--------------
A|-----------------------------------
E|-----------------------------------

teri yaad saath hai
E|-----------------------------------------------
B|--------------1--------------------------------
G|--0--0--0--2--------2--0-----------0-----------
D|--------------------------3--0--------3--3-----
A|-----------------------------------------------
E|-----------------------------------------------

kisi se kahu
E|--------------------
B|--------------------
G|-----0--2--0--2-----
D|--3-----------------
A|--------------------
E|--------------------

ki nhi kahu
E|--------------------------------
B|-----1--------------------------
G|--2-----2--0-----------2--0-----
D|--------------3--0--------------
A|--------------------------------
E|--------------------------------

ye jo dil ki baat hai
E|-----------------------------------------------
B|--------------1--------------------------------
G|--0--0--0--2--------2--0-----------0-----------
D|--------------------------3--0--------3--3-----
A|-----------------------------------------------
E|-----------------------------------------------

kahne ko sath apne ek duniya chalti hai
E|--5--5--3--5-----5--5--3--5-----5--5--3--3--5--3--1--3--3-----
B|--------------------------------------------------------------
G|--------------------------------------------------------------
D|--------------------------------------------------------------
A|--------------------------------------------------------------
E|--------------------------------------------------------------

per chupke se dil mein tanhaayi basti hai
E|--5--5--3--5-----5--5--3--5-----5--5--3--3--5--3--1--3--3-----
B|--------------------------------------------------------------
G|--------------------------------------------------------------
D|--------------------------------------------------------------
A|--------------------------------------------------------------
E|--------------------------------------------------------------

teri yaad sath hai
E|--------1--------1-----------------
B|--1--1--------3--------3--1--1-----
G|-----------------------------------
D|-----------------------------------
A|-----------------------------------
E|-----------------------------------

teri yaad saath hai
E|--------1--------1-----------------
B|--1--1--------3--------3--1--1-----
G|-----------------------------------
D|-----------------------------------
A|-----------------------------------
E|-----------------------------------

teri yaad saath hai..
E|-----------------1-----3--3--1--1-----
B|--1--1--2-----2-----------------------
G|--------------------------------------
D|--------------------------------------
A|--------------------------------------
E|--------------------------------------

teri yaad saath hai..
E|-----------1-----3--3--1--1-----
B|--2--2--2-----------------------
G|--------------------------------
D|--------------------------------
A|--------------------------------
E|--------------------------------


kahin to dil mein yaadon ki 
E|--1--1--1-----1--1--------------
B|--------------------1--3--3-----
G|--------------------------------
D|--------------------------------
A|--------------------------------
E|--------------------------------

ek suli gad jati hai
E|-----------------1--1--0--------------
B|--------3--3--------------3--1--1-----
G|--3--3--------------------------------
D|--------------------------------------
A|--------------------------------------
E|--------------------------------------

Kahin har ek tasveer bhahut hi
E|--1--1-----1--1-----------------------
B|-----------------1--3--3--3--3--3-----
G|--------------------------------------
D|--------------------------------------
A|--------------------------------------
E|--------------------------------------

Dhondhali pad jati hai
E|--------------1--1--0--------------
B|--------3--3-----------3--1--1-----
G|--3--3-----------------------------
D|-----------------------------------
A|-----------------------------------
E|-----------------------------------

Koi nayi duniya ke naye
E|-----1--1--1-----1--1-----------------
B|--1--------------------1--3--3--3-----
G|--------------------------------------
D|--------------------------------------
A|--------------------------------------
E|--------------------------------------

Rango mein khush rehta hai
E|-----------------1--1--0--------------
B|--------3--3--------------3--1--1-----
G|--3--3--------------------------------
D|--------------------------------------
A|--------------------------------------
E|--------------------------------------

Koi sab kuch paake bhi
E|-----1-----1--1--1-----------------
B|--1-----------------1--3--3--3-----
G|-----------------------------------
D|-----------------------------------
A|-----------------------------------
E|-----------------------------------

Yeh mann hi mann kehta hai

E|-----------1--1--0--------------
B|-----3--3-----------3--1--1-----
G|--3-----------------------------
D|--------------------------------
A|--------------------------------
E|--------------------------------

kahane ko saath apane ik duniya chalti hai
E|--5--5--3--5-----5--5--3--5-----5--5--3--3--5--3--1--3--3-----
B|--------------------------------------------------------------
G|--------------------------------------------------------------
D|--------------------------------------------------------------
A|--------------------------------------------------------------
E|--------------------------------------------------------------

Per chhupke is dil mein tanhaayi palti hai
E|--5--5--3--5-----5--5--3--5-----5--5--3--3--5--3--1--3--3-----
B|--------------------------------------------------------------
G|--------------------------------------------------------------
D|--------------------------------------------------------------
A|--------------------------------------------------------------
E|--------------------------------------------------------------

Bas yaad saath hai 
E|--------1--------1-----------------
B|--1--1--------3--------3--1--1-----
G|-----------------------------------
D|-----------------------------------
A|-----------------------------------
E|-----------------------------------

Bas yaad saath hai 
E|--------1--------1-----------------
B|--1--1--------3--------3--1--1-----
G|-----------------------------------
D|-----------------------------------
A|-----------------------------------
E|-----------------------------------

Bas yaad saath hai ..
E|-----------------1-----3--3--1--1-----
B|--1--1--2-----2-----------------------
G|--------------------------------------
D|--------------------------------------
A|--------------------------------------
E|--------------------------------------
tabs and chords, guitar tabs, music contests, music covers, songsterr, reverbnation, renditions, tabulature, bollywood chords, ultimate guitar, yousician, guitar lessons, torrins, fender, gibson, acoustic guitar, electric guitar, youtube covers, gootar, guitar tuner, A-Z tabs, 911 tabs