Guitar Tabs for Meet The 80's (verse Chords)

(/) Slide Up  (\) Slide Down  (h) Hammer On  (p) Pull Off  (b) Bend (r) Release (v) Vibrato (x) Muted

Tabs & Chords
BPM : 133.0
Check Track 2 for Chord Positions 

          Am       F                          C     Am          F                       C     
E|--------7--8-----7-----7--7-----7-----------0-----6--7--8-----------7-----7-----------------
B|--------------------------------------8-----------------------0-----------------8-----8--8--
G|--------------------------------------------------------------------------------------------
D|--------------------------------------------------------------------------------------------
A|--0-----------------------------------------------------------------------------------------
E|--------------------------------------------------------------------------------------------

       Am             F                       D                 C                          Am 
E|-----------------------------------------------------------------------------------------5--
B|-----------0--------------0-----------------------------------------0--------0--0-----------
G|-----5--5-----5--7--5--7--------------------------5-----5--7--5-----------------------5-----
D|-----------------------------8-----6--7-----7--------7--------------------8--------7--------
A|--------------------------------------------------------------------------------------------
E|--------------------------------------------------------------------------------------------

                      F                       D              Em    E        
E|--------------------------------------------------------------------------
B|-----------------------------0--------------------------------------------
G|--------5-----7-----5--7-----------5--------7--5-----7-----6--------------
D|-----7-----------------------------------------------------------8-----7--
A|--------------------------------------------------------------------------
E|--------------------------------------------------------------------------

Guitar Tabs for Meet The 80's (verse Chords)






          Am       F                          C     Am          F                       C     
E|--------0--------1--------------------------0-----0-----------1-----------------------0-----
B|--------1--------1--------------------------1-----1-----------1-----------------------1-----
G|--------2--------2--------------------------0-----2-----------2-----------------------0-----
D|--------2--------3--------------------------2-----2-----------3-----------------------2-----
A|--------0--------3--------------------------3-----0-----------3-----------------------3-----
E|-----------------1--------------------------------------------1-----------------------------

       Am             F                       D                 C                          Am 
E|-----0--------------1-----------------------2-----------------0--------------------------0--
B|-----1--------------1-----------------------3-----------------1--------------------------1--
G|-----2--------------2-----------------------2-----------------0--------------------------2--
D|-----2--------------3-----------------------0-----------------2--------------------------2--
A|-----0--------------3-----------------------------------------3--------------------------0--
E|--------------------1-----------------------------------------------------------------------

                      F                       D              Em    E        
E|--------------------1-----------------------2--------------0-----0--------
B|--------------------1-----------------------3--------------0-----0--------
G|--------------------2-----------------------2--------------0-----1--------
D|--------------------3-----------------------0--------------2-----2--------
A|--------------------3--------------------------------------2-----2--------
E|--------------------1--------------------------------------0-----0--------

tabs and chords, guitar tabs, music transcription, music technology, deep learning, music information retrieval, transcribe into tabs & chords, chordify, music renditions, songsterr, reverbnation, tabulature, bollywood chords, ultimate guitar, yousician, guitar lessons, acoustic guitar, electric guitar, guitar tuner, 911 tabs