Guitar Tabs for Meet The 80's (chorus)

(/) Slide Up  (\) Slide Down  (h) Hammer On  (p) Pull Off  (b) Bend (r) Release (v) Vibrato (x) Muted

Tabs & Chords
BPM : 133.0
Check Track 2 for Chord Positions 

       C           D           F        G                       C                          D  
E|-----10----------------0--------------------------------0-----------------------------------
B|-----------7-----8-----------------------8--8-----8-----------------------------------------
G|-----------------------------8--------10----------------------7--------7-----8-----10----10-
D|-----------------------------------10-------------------------------10----------------------
A|--------------------------------------------------------------------------------------------
E|--------------------------------------------------------------------------------------------

          Dm    F                    G                       C           Dm                F  
E|--------------0-----0--------------------------0--------------------------------------------
B|--------8-----------------------------------------------------------------------------------
G|--10-------------------8-----7--------7--7--7--------8-----8-----8--7--8-----10-10-10----7--
D|-----------------------------------10-------------------------------------------------------
A|--------------------------------------------------------------------------------------------
E|--------------------------------------------------------------------------------------------

                      G                 C                             Dm                F     F  
E|--------0-----0-----------------0--------------------------------------------------0--0--------
B|-----------------------------------------------------------------------------8-----------------
G|-----7--------------10-10-10-------------8--7-----7--7--10-8--10----10-10-------------------8--
D|--------------------------------------10-------------------------------------------------------
A|-----------------------------------------------------------------------------------------------
E|-----------------------------------------------------------------------------------------------

       
E|-----
B|-----
G|--7--
D|-----
A|-----
E|-----

Guitar Tabs for Meet The 80's (chorus)






       C           D           F        G                       C                          D  
E|-----0-----------2-----------1--------3-----------------------0--------------------------2--
B|-----1-----------3-----------1--------3-----------------------1--------------------------3--
G|-----0-----------2-----------2--------4-----------------------0--------------------------2--
D|-----2-----------0-----------3--------5-----------------------2--------------------------0--
A|-----3-----------------------3--------5-----------------------3-----------------------------
E|-----------------------------1--------3-----------------------------------------------------

          Dm    F                    G                       C           Dm                F  
E|--------1-----1--------------------3-----------------------0-----------1-----------------1--
B|--------3-----1--------------------3-----------------------1-----------3-----------------1--
G|--------2-----2--------------------4-----------------------0-----------2-----------------2--
D|--------0-----3--------------------5-----------------------2-----------0-----------------3--
A|--------------3--------------------5-----------------------3-----------------------------3--
E|--------------1--------------------3-----------------------------------------------------1--

                      G                 C                             Dm                F     F  
E|--------------------3-----------------0-----------------------------1-----------------1-----1--
B|--------------------3-----------------1-----------------------------3-----------------1-----1--
G|--------------------4-----------------0-----------------------------2-----------------2-----2--
D|--------------------5-----------------2-----------------------------0-----------------3-----3--
A|--------------------5-----------------3-----------------------------------------------3-----3--
E|--------------------3-----------------------------------------------------------------1-----1--

       
E|-----
B|-----
G|-----
D|-----
A|-----
E|-----

tabs and chords, guitar tabs, music transcription, music technology, deep learning, music information retrieval, transcribe into tabs & chords, chordify, music renditions, songsterr, reverbnation, tabulature, bollywood chords, ultimate guitar, yousician, guitar lessons, acoustic guitar, electric guitar, guitar tuner, 911 tabs