Guitar Tabs for Me Voy Enamorando

(/) Slide Up  (\) Slide Down  (h) Hammer On  (p) Pull Off  (b) Bend (r) Release (v) Vibrato (x) Muted

Tabs for Song : Me Voy Enamorando

Capo on 3rd fret

Song lyrics here
E|--0--2--3--0---- 
B|--0-------------
G|--0-------------
D|----------------
A|----------------
E|----------------

E|--0--2--3--0---- 
B|--0-------------
G|--0-------------
D|----------------
A|----------------
E|----------------

E|--3--1---1/3-----0---1r0-----
B|--------------------------2--
G|-----------------------------
D|-----------------------------
A|-----------------------------
E|-----------------------------

E|-----------------------------------
B|-----------------------------------
G|--0-----0--2--4--5--4--2--0---2/4--
D|-----4-----------------------------
A|-----------------------------------
E|-----------------------------------

E|--0--3--2--0--------------------------
B|--0--------------------1--0-----------
G|--0-----------------0--------2---2/4--
D|-----------------0--------------------
A|--------------------------------------
E|--------------------------------------

E|-----------------------------------2--5--3--
B|---1r0--3-----------------------3-----------
G|--------------2---0h-2r0--------------------
D|--------------------------4-----------------
A|--------------------------------------------
E|--------------------------------------------

Paste any tab in acousterr's tab maker and we'll play it !!!
Now supports capo and sound effects for vibrato/pull-off/hammer/bends/mutes etc !!! Checkout help section
tabs and chords, guitar tabs, music transcription, music technology, deep learning, music information retrieval, transcribe into tabs & chords, chordify, music renditions, songsterr, reverbnation, tabulature, bollywood chords, ultimate guitar, yousician, guitar lessons, acoustic guitar, electric guitar, guitar tuner, 911 tabs