Guitar Tabs for Maroon 5- Sugar (part 2)

(/) Slide Up  (\) Slide Down  (h) Hammer On  (p) Pull Off  (b) Bend (r) Release (v) Vibrato (x) Muted

Tabs & Chords
BPM : 117.0
Check Track 2 for Chord Positions 

       C#    F#    A#m            D#m   C#                   F#          A#m         D#m   C# 
E|-----9--9--6-----6-----------------------------------9-----6-----------10----13----9-----9--
B|--------------------6-----------------7--7-----0--------------------------------7-----------
G|--------------------------------6-----------8-----------------------------------------------
D|--------------------------------------------------------------------------------------------
A|--------------------------------------------------------------------------------------------
E|-----------------------6--------------------------------------------------------------------

                               A#m         D#m                        C#                F#    
E|-----------------------------------------0--------------------0-----------------9-----6--6--
B|-----9--------------------------------------------------------------------------------------
G|-----------------8--8--6-----6-----6--------8--8-----6--8-----------------6-----------------
D|--------------------------------------------------------------------8--8--------------------
A|--------------9-----------------------------------------------------------------------------
E|--------1-----------------------------------------------------------------------------------

                A#m            D#m
E|-----------------6--------------
B|--------------9--------6--------
G|-----------6--------------------
D|--------------------------------
A|-----9-----------------------6--
E|--------------------------------

Guitar Tabs for Maroon 5- Sugar (part 2)






       C#    F#    A#m            D#m   C#                   F#          A#m         D#m   C# 
E|-----4-----2-----1--------------6-----4--------------------2-----------1-----------6-----4--
B|-----6-----2-----2--------------7-----6--------------------2-----------2-----------7-----6--
G|-----6-----3-----3--------------8-----6--------------------3-----------3-----------8-----6--
D|-----6-----4-----3--------------8-----6--------------------4-----------3-----------8-----6--
A|-----4-----4-----1--------------6-----4--------------------4-----------1-----------6-----4--
E|-----------2-----------------------------------------------2--------------------------------

                               A#m         D#m                        C#                F#    
E|-----------------------------1-----------6--------------------------4-----------------2-----
B|-----------------------------2-----------7--------------------------6-----------------2-----
G|-----------------------------3-----------8--------------------------6-----------------3-----
D|-----------------------------3-----------8--------------------------6-----------------4-----
A|-----------------------------1-----------6--------------------------4-----------------4-----
E|--------------------------------------------------------------------------------------2-----

                A#m            D#m
E|--------------1--------------6--
B|--------------2--------------7--
G|--------------3--------------8--
D|--------------3--------------8--
A|--------------1--------------6--
E|--------------------------------

tabs and chords, guitar tabs, music transcription, music technology, deep learning, music information retrieval, transcribe into tabs & chords, chordify, music renditions, songsterr, reverbnation, tabulature, bollywood chords, ultimate guitar, yousician, guitar lessons, acoustic guitar, electric guitar, guitar tuner, 911 tabs