Guitar Tabs for Maroon 5- Sugar (part 1)

(/) Slide Up  (\) Slide Down  (h) Hammer On  (p) Pull Off  (b) Bend (r) Release (v) Vibrato (x) Muted

Tabs & Chords
BPM : 117.0
Check Track 2 for Chord Positions 

    C#             A#m            D#m               G# C#                               A#m   
E|--------------------------------------------------------------------------------------------
B|--2--2--3--2-----4--2-----2--------4-----2--4-----4--3--4--4-----2-----4-----2--2-----2--2--
G|--------------------------------------------------------------------------------------------
D|--------------------------------1-----------------------------------------------------------
A|--------------------------------------------------------------------------------------------
E|--------------------------------------------------------------------------------------------

       D#m      C#                            F#    C#       A#m                  D#m         
E|-----------------------------------------------------1--------------------1--------------1--
B|-----4-----4--4-----4-----4--4--2-----2-----------4--------------------4--------------------
G|--------------------------------------------3--3-----------------3--------------------------
D|--------------------------------------------------------------------------------1-----------
A|-----------------------------------------------------------1--1-----------------------1-----
E|--------------------------------------------------------------------------------------------

          C#                F#                   A#m            D#          D#m               
E|-----------------------------------------1-----1--1--1--1--20-------------------0-----------
B|--2-----2-----4--------------------------------------------------------------4-----4-----4--
G|-----------------3--3-----------3--------------------------------------3--3-----------------
D|--------------------------------------------------------------------------------------------
A|--------------------------------------------------------------1--1--------------------------
E|--------------------------2--2-----2--2-----------------------------------------------------

    C# 
E|-----
B|--2--
G|-----
D|-----
A|-----
E|-----

Guitar Tabs for Maroon 5- Sugar (part 1)






    C#             A#m            D#m               G# C#                               A#m   
E|--4--------------1--------------6-----------------4--4--------------------------------1-----
B|--6--------------2--------------7-----------------4--6--------------------------------2-----
G|--6--------------3--------------8-----------------5--6--------------------------------3-----
D|--6--------------3--------------8-----------------6--6--------------------------------3-----
A|--4--------------1--------------6-----------------6--4--------------------------------1-----
E|--------------------------------------------------4-----------------------------------------

       D#m      C#                            F#    C#       A#m                  D#m         
E|-----6--------4-----------------------------2-----4--------1--------------------6-----------
B|-----7--------6-----------------------------2-----6--------2--------------------7-----------
G|-----8--------6-----------------------------3-----6--------3--------------------8-----------
D|-----8--------6-----------------------------4-----6--------3--------------------8-----------
A|-----6--------4-----------------------------4-----4--------1--------------------6-----------
E|--------------------------------------------2-----------------------------------------------

          C#                F#                   A#m            D#          D#m               
E|--------4-----------------2--------------------1--------------6-----------6-----------------
B|--------6-----------------2--------------------2--------------8-----------7-----------------
G|--------6-----------------3--------------------3--------------8-----------8-----------------
D|--------6-----------------4--------------------3--------------8-----------8-----------------
A|--------4-----------------4--------------------1--------------6-----------6-----------------
E|--------------------------2-----------------------------------------------------------------

    C# 
E|--4--
B|--6--
G|--6--
D|--6--
A|--4--
E|-----

tabs and chords, guitar tabs, music transcription, music technology, deep learning, music information retrieval, transcribe into tabs & chords, chordify, music renditions, songsterr, reverbnation, tabulature, bollywood chords, ultimate guitar, yousician, guitar lessons, acoustic guitar, electric guitar, guitar tuner, 911 tabs