Guitar Tabs for Marchinha

SEM LETRA
E|--------------------1-----0-----1--0--------------
B|--------------3--------3--------------3-----------
G|-----------2--------------------------------------
D|--0-----3-----------------------------------------
A|--------------------------------------------------
E|--------------------------------------------------

E|-----------------------------------------------------
B|--------------1--------------------------------------
G|-----------2--------2--------------2--0--------------
D|--0-----3--------------3--0-----3--------------------
A|-----------------------------------------------------
E|-----------------------------------------------------

E|--------------------------------------------------------------------------
B|-------------------------------------------------------------------------
G|-----------0-----------------3-----0--2-----------------0--1--2-----------
D|--0--2--3--------------------------------------------3--------------------
A|--------------------------------------------------------------------------
E|--------------------------------------------------------------------------

E|--1--------0----1----0-----
B|--------3----------------3-
G|---------------------------
D|---------------------------
A|---------------------------
E|---------------------------
tabs and chords, guitar tabs, music transcription, music technology, deep learning, music information retrieval, transcribe into tabs & chords, chordify, music renditions, songsterr, reverbnation, tabulature, bollywood chords, ultimate guitar, yousician, guitar lessons, acoustic guitar, electric guitar, guitar tuner, 911 tabs