Bass Tabs for Malte's Song(?) - Lemonsweet

(/) Slide Up  (\) Slide Down  (h) Hammer On  (p) Pull Off  (b) Bend (r) Release (v) Vibrato (x) Muted

Tabs for Song : Maltes Song (KA wie der heißt)

Intro + Strophe
G|--------------------------------------------------------------------------------------------------
D|--------------------------------------------------------------------------------------------------
A|--------------------------------------------------3--3-----3--3--3-----3--2--2-----2--3--2--------
E|--0--0-----0--0--0-----0--3--3-----3--3--3-----3--------------------------------------------3--2--

Pre-Chorus
G|--------------------------------------------------
D|--------------------------------------------------
A|--------3-----5-----7--10-9--7--5--7--3-----5-----
E|--0-----------------------------------------------
Chorus
G|-----------------------------------------´´-------------------------------------
D|--------------------------------------------------------------------------------
A|--------------------3--3--3---3--3--3-3----0--0--0-0-0-0--0--0--0--0--0--0--0--0
E|--0--0---0--0--0----------------------------------------------------------------

G|-----------------------------------------´´-------------------------------------
D|--------------------------------------------------------------------------------
A|--------------------3--3--3---3--3--3-3----0--0--0-0-0-0---2--2--2--2--2--2--2--
E|--0--0---0--0--0----------------------------------------------------------------


Strophe
Pre-Chorus
Chorus
Solo(Wie Verse)
Chorus (ohne Bass)
Chorus
Solo (Wie Chorus)
tabs and chords, guitar tabs, music transcription, music technology, deep learning, music information retrieval, transcribe into tabs & chords, chordify, music renditions, songsterr, reverbnation, tabulature, bollywood chords, ultimate guitar, yousician, guitar lessons, acoustic guitar, electric guitar, guitar tuner, 911 tabs