Guitar Tabs for Main Phir Bhi Tumko Chahunga - Single String Tabs

Main Fir Bhi Tumko Chahunga

E|--------------------------------------------------
B|--7-----12-10-8--7--5--7-----12-10-8--7--5--7-----
G|--------------------------------------------------
D|--------------------------------------------------
A|--------------------------------------------------
E|--------------------------------------------------

E|-----------------------------------------------
B|--12-10-8--7--3--5--7--2--3--5-----3--5--7-----
G|-----------------------------------------------
D|-----------------------------------------------
A|-----------------------------------------------
E|-----------------------------------------------

E|--------------------------------------------------------------
B|--7--5--7--5--7--10-8--7-----7--12-12-10-10-8--8--8--7--8-----
G|--------------------------------------------------------------
D|--------------------------------------------------------------
A|--------------------------------------------------------------
E|--------------------------------------------------------------


E|-----------------------------------------
B|--3--5--7--8--7-----3--5--7--7--8--7-----
G|-----------------------------------------
D|-----------------------------------------
A|-----------------------------------------
E|-----------------------------------------


E|-----------------------------------
B|--7--12-12-10-10-8--8--8--7--8-----
G|-----------------------------------
D|-----------------------------------
A|-----------------------------------
E|-----------------------------------


E|--------------------------------------
B|--8--7--7--5--3--2--2--3---3/5--7-----
G|--------------------------------------
D|--------------------------------------
A|--------------------------------------
E|--------------------------------------


E|--------------------------------
B|--7--11-12-14-14-17-17-15-15----
G|--------------------------------
D|--------------------------------
A|--------------------------------
E|--------------------------------

Main Phir bhi Tumko Chahunga
E|--------------------------------
B|--12-15-15-17-14-12-10-12-14-14-
G|--------------------------------
D|--------------------------------
A|--------------------------------
E|--------------------------------

Main Phir bhi Tumko Chahunga
E|-----------------------------------------
B|--12-15-15-17-14-12-10-12-10-8--7--7-----
G|-----------------------------------------
D|-----------------------------------------
A|-----------------------------------------
E|-----------------------------------------
tabs and chords, guitar tabs, music contests, music covers, songsterr, reverbnation, renditions, tabulature, bollywood chords, ultimate guitar, yousician, guitar lessons, torrins, fender, gibson, acoustic guitar, electric guitar, youtube covers, gootar, guitar tuner, A-Z tabs, 911 tabs