Guitar Tabs for Main Hoon Saath Tere - Arijit Singh Tabs

(/) Slide Up  (\) Slide Down  (h) Hammer On  (p) Pull Off  (b) Bend (r) Release (v) Vibrato (x) Muted

Tabs for Song : Main Hoon Saath Tere

Aasmaan sitaaron se chhalakne laga
E|--------------------------------------------
B|--------------------------------------------
G|--5--8--5--8--8--8--6--6--5--5--6--5--------
D|--------------------------------------6--6--
A|--------------------------------------------
E|--------------------------------------------

Chand saa tu jo mujhme chamakne laga
E|-----------------------------------------------
B|-----------------------------------------------
G|--5--8--5--8--8--8--6--6--5--5--6--5-----------
D|---------------------------------------6/8--10-
A|-----------------------------------------------
E|-----------------------------------------------

Aasmaan sitaaron se chhalakne laga
E|--------------------------------------------
B|--------------------------------------------
G|--5--8--5--8--8--8--6--6--5--5--6--5--------
D|--------------------------------------6--6--
A|--------------------------------------------
E|--------------------------------------------

Chand saa tu jo mujhme chamakne laga
E|--------------------------------------------
B|--------------------------------------------
G|--5--8--5--8--8--8--6--6--5--5--6--5--------
D|---------------------------------------6/8--
A|--------------------------------------------
E|--------------------------------------------

Rahoon tere yoon paas main Banu tera ehsaas main
E|--------------------------------------------------------
B|--------------------------------------------------------
G|-----------------8--10-8--8-----------------8--10-8--8--
D|--8--10-10/11-11-------------8--10-10/11-11-------------
A|--------------------------------------------------------
E|--------------------------------------------------------

Yaar jee loon aa teri har saans main
E|-----------------------------------------------------------
B|-----------------------------------------------------------
G|--8--10-10/12-12-12-13-12\10-10\8--10-8--8--10-8-----------
D|--------------------------------------------------11-10-8--
A|-----------------------------------------------------------
E|-----------------------------------------------------------

Shaam saa tu dhalta Tu subah saa hai nikalta
E|--------------------------------------------
B|--------------------------------------------
G|-----------------5-----5-----------------5--
D|--6--5--6--8--8-----8-----6--5--6--8--8-----
A|--------------------------------------------
E|--------------------------------------------

Tere saaye mein chalta
E|--------------------------------
B|-----------------6--------------
G|-----5--6--6--6-----8--6--5-----
D|--8--------------------------8--
A|--------------------------------
E|--------------------------------

Main hoon saath tere Main hoon saath tere (2x)
E|-----------------------------------------------
B|-----------------------------------------------
G|-----5-----------------------------------------
D|--8-----6--6--6--6--5---6/8--8--10-6--6--6--6--
A|-----------------------------------------------
E|-----------------------------------------------

tabs and chords, guitar tabs, music contests, music covers, songsterr, reverbnation, renditions, tabulature, bollywood chords, ultimate guitar, yousician, guitar lessons, torrins, fender, gibson, acoustic guitar, electric guitar, youtube covers, gootar, guitar tuner, A-Z tabs, 911 tabs