Guitar Tabs for Main Bola Hey Guitar

Me bola heyy woh mani toh
aakhon se lori woh suna de toh 
E|--------------------------------------------------------------------------------
B|--------3-----5-----5-----5-----5--3--3-----3-----3--5--5--5--5--5-----5--3--3--
G|---2/5-----5-----------------------------------5--------------------------------
D|--------------------------------------------------------------------------------
A|--------------------------------------------------------------------------------
E|--------------------------------------------------------------------------------

Sapno me beh jaunga mujhko roko...
E|--------------------------------------------------------------
B|-----3-----3--5--5--5--5--5-----5--3--3-----3--3--5---5/6--6--
G|--------5-----------------------------------------------------
D|--------------------------------------------------------------
A|--------------------------------------------------------------
E|--------------------------------------------------------------

Me bola heyy woh aaye toh do pal saath beetaye toh 
E|--------------------------------------------------------------------------------
B|--------3-----5--5--5--5--5-----5--3--3-----3-----3--5--5--5--5--5-----5--3--3--
G|---2/5-----5-----------------------------------5--------------------------------
D|--------------------------------------------------------------------------------
A|--------------------------------------------------------------------------------
E|--------------------------------------------------------------------------------

Dil k raaz sunaunga mujhko roko...
haan roko
E|-----------------------------------------------------------------------------------
B|-----3-----3--5--5--5--5--5-----5--3--3-----3--3--5---5/6--6---3/6--6---5h-6p5--3--
G|--------5--------------------------------------------------------------------------
D|-----------------------------------------------------------------------------------
A|-----------------------------------------------------------------------------------
E|-----------------------------------------------------------------------------------

Par humko tum roko na
E|-----------------------------------
B|---8/10-8--6--5---3/5---6/8---5/6--
G|-----------------------------------
D|-----------------------------------
A|-----------------------------------
E|-----------------------------------

jab hum aise kho ye ho
E|-----------------------------------
B|---8/10-8--6--5---3/5---6/8---5/6--
G|-----------------------------------
D|-----------------------------------
A|-----------------------------------
E|-----------------------------------

apni choti duniya me
E|--------7--8--------------------
B|--8--10--------3/5---6/8---5/6--
G|--------------------------------
D|--------------------------------
A|--------------------------------
E|--------------------------------

kyun humko tum rokoge..
E|--------------------------------------------
B|---8/10-8--6--5---------6/8---5h-6p5--3-----
G|------------------2/5-----------------------
D|--------------------------------------------
A|--------------------------------------------
E|--------------------------------------------


E|--------------------------------------------
B|-----6---6h-8p6---5h-6p5---3h-5p3-----------
G|--------------------------------------3-----
D|--------------------------------------------
A|--------------------------------------------
E|--------------------------------------------
tabs and chords, guitar tabs, music transcription, music technology, deep learning, music information retrieval, transcribe into tabs & chords, chordify, music renditions, songsterr, reverbnation, tabulature, bollywood chords, ultimate guitar, yousician, guitar lessons, acoustic guitar, electric guitar, guitar tuner, 911 tabs