Ukulele Tabs for Main Bola Hey

Me bola heyy woh mani toh aakhon se lori woh suna de toh Sapno me beh jaunga
A|--------------------------------------------------------------------------------------------------
E|-----------0--0--0--0--0-----------------0--0--0--0--0--0-----------------0--0--0--0--0--0--------
C|--0--2--0-----------------2--2--0--2--0--------------------2--2--0--2--0--------------------2--2--
G|--------------------------------------------------------------------------------------------------

mujhko roko...
A|-----------------
E|-----------------
C|--2--4---4/5--5--
G|-----------------


Me bola heyy woh aaye toh do pal saath beetaye toh Dil k raaz sunaunga
A|--------------------------------------------------------------------------------------------------
E|-----------0--0--0--0--0-----------------0--0--0--0--0--0-----------------0--0--0--0--0--0--------
C|--0--2--0-----------------2--2--0--2--0--------------------2--2--0--2--0--------------------2--2--
G|--------------------------------------------------------------------------------------------------


mujhko roko haan tum roko
A|-----------------------------------------
E|-----------------------------------------
C|--2--4---4/5--5---2/5--5---4h-5p2---2/4--
G|-----------------------------------------


Par humko tum roko na
A|--------------------------------------
E|--------------------------------------
C|---7/9--7--5--4---2/4---5/7---2/5-----
G|--------------------------------------

jab hum aise kho ye ho
A|--------------------------------------
E|--------------------------------------
C|---7/9--7--5--4---2/4---5/7---2/5-----
G|--------------------------------------

apni choti duniya me
A|--------------------------------
E|--------7--8--------------------
C|--7--9---------2/4---5/7---2/5--
G|--------------------------------

kyun humko tum rokoge..
A|--------------------------------
E|--------------------------------
C|---7/9--7--5--4--0---5/7---4\2--
G|--------------------------------


A|-----------------------------------
E|-----------------------------------
C|--5---5h-7p5---4h-5p4---2h-4p2--0--
G|-----------------------------------


tabs and chords, guitar tabs, music transcription, music technology, deep learning, music information retrieval, transcribe into tabs & chords, chordify, music renditions, songsterr, reverbnation, tabulature, bollywood chords, ultimate guitar, yousician, guitar lessons, acoustic guitar, electric guitar, guitar tuner, 911 tabs