Maggie - Bass Tabs

(/) Slide Up  (\) Slide Down  (h) Hammer On  (p) Pull Off  (b) Bend (r) Release (v) Vibrato (x) Muted

Tabs for Song : 
BPM : 200

G|------------------------------------------------
D|-----------------------------------------------
A|--7--7--7--7-----------------------------------
E|--------------9--7--7--7--7--9--9--9--9--9--9--

G|--------------------------------------------------
D|--------------------------------------------------
A|--7--7--7--7--------------------------------------
E|--------------9--7--7--7--7--7--11-11-11-11-11-11-


G|------------------------------------------------
D|-----------------------------------------------
A|--7--7--7--7-----------------------------------
E|--------------9--7--7--7--7--9--9--9--9--9--9--

G|--------------------------------------------------
D|--------------------------------------------------
A|--7--7--7--7--------------------------------------
E|--------------9--7--7--7--7--7--11-11-11-11-11-11-


G|--------------------------------------------------------
D|--------------------------------------------------------
A|-----------------------------11-11-11-11-11-11-11-11-11-
E|--7--7--7--7--11-11-11-11-11----------------------------

G|--------------------------------------------------------
D|--------------------------------------------------------
A|-----------------------------11-11-11-11-11-11-11-11-11-
E|--7--7--7--7--11-11-11-11-11----------------------------

G|--------------------------------------------------------
D|--------------------------------------------------------
A|-----------------------------------------11-11-11-11-11-
E|--7--7--7--7--11-11-11-11-11-9--9--9--9-----------------

G|--------------------------------------------------------
D|--------------------------------------------------------
A|-----------------------------11-11-11-11-11-11-11-11-11-
E|--7--7--7--7--11-11-11-11-11----------------------------



G|------------------------------------------------
D|-----------------------------------------------
A|--7--7--7--7-----------------------------------
E|--------------9--7--7--7--7--9--9--9--9--9--9--

G|--------------------------------------------------
D|--------------------------------------------------
A|--7--7--7--7--------------------------------------
E|--------------9--7--7--7--7--7--11-11-11-11-11-11-


G|------------------------------------------------
D|-----------------------------------------------
A|--7--7--7--7-----------------------------------
E|--------------9--7--7--7--7--9--9--9--9--9--9--

G|--------------------------------------------------
D|--------------------------------------------------
A|--7--7--7--7--------------------------------------
E|--------------9--7--7--7--7--7--11-11-11-11-11-11-



G|--------------------------------------------------------
D|--------------------------------------------------------
A|-----------------------------11-11-11-11-11-11-11-11-11-
E|--7--7--7--7--11-11-11-11-11----------------------------

G|--------------------------------------------------------
D|--------------------------------------------------------
A|-----------------------------11-11-11-11-11-11-11-11-11-
E|--7--7--7--7--11-11-11-11-11----------------------------

G|--------------------------------------------------------
D|--------------------------------------------------------
A|-----------------------------------------11-11-11-11-11-
E|--7--7--7--7--11-11-11-11-11-9--9--9--9-----------------

G|--------------------------------------------------------
D|--------------------------------------------------------
A|-----------------------------11-11-11-11-11-11-11-11-11-





G|--------------------------------------------------------------------------------------------------------
D|--------------------------------------------------------------------------------------------------------
A|--------------------------------------------------------------------------9--9--9--9--9--9--9--9--9--9--
E|--7--7--7--7--11-11-11-11-7--7--7--7--11-11-11-11-7--7--7--7--11-11-11-11-------------------------------


G|--------------------------------------------------------------------------------------------------------
D|--------------------------------------------------------------------------------------------------------
A|--------------------------------------------------------------------------9--9--9--9--9--9--9--9--9--9--
E|--7--7--7--7--11-11-11-11-7--7--7--7--11-11-11-11-7--7--7--7--11-11-11-11-------------------------------

G|--------------------------------------------------------------------------------------------------------
D|--------------------------------------------------------------------------------------------------------
A|--------------------------------------------------------------------------9--9--9--9--9--9--9--9--9--9--
E|--7--7--7--7--11-11-11-11-7--7--7--7--11-11-11-11-7--7--7--7--11-11-11-11-------------------------------

G|--------------------------------------------------------------------------------------------------------
D|--------------------------------------------------------------------------------------------------------
A|--------------------------------------------------------------------------9--9--9--9--9--9--9--9--9--9--
E|--7--7--7--7--11-11-11-11-7--7--7--7--11-11-11-11-7--7--7--7--11-11-11-11-------------------------------


G|--------------------------------------------------------
D|--------------------------------------------------------
A|-----------------------------11-11-11-11-11-11-11-11-11-
E|--7--7--7--7--11-11-11-11-11----------------------------

G|--------------------------------------------------------
D|--------------------------------------------------------
A|-----------------------------11-11-11-11-11-11-11-11-11-
E|--7--7--7--7--11-11-11-11-11----------------------------

G|--------------------------------------------------------
D|--------------------------------------------------------
A|-----------------------------------------11-11-11-11-11-
E|--7--7--7--7--11-11-11-11-11-9--9--9--9-----------------

G|--------------------------------------------------------
D|--------------------------------------------------------
A|-----------------------------11-11-11-11-11-11-11-11-11-


Use manual mode to free up cursor. Paste any tab in acousterr tab maker and we'll play it !!!
tabs and chords, guitar tabs, music transcription, music technology, deep learning, music information retrieval, transcribe into tabs & chords, chordify, music renditions, songsterr, reverbnation, tabulature, bollywood chords, ultimate guitar, yousician, guitar lessons, acoustic guitar, electric guitar, guitar tuner, 911 tabs