Guitar Tabs for Drowsy Maggie (transposed For Guitar)

(/) Slide Up  (\) Slide Down  (h) Hammer On  (p) Pull Off  (b) Bend (r) Release (v) Vibrato (x) Muted

Drowsy Maggie (transposed for guitar with capo at 5th fret)
note: I remmend adjusting acousterr speed slider to just before fastest for best results


E|--------------------------------------------------------------------------------------------------
B|--------------------------------------------------------------------------------------------------
G|--------------2-----------------------------------------------2--------------------1--2-----------
D|--------4-----------4-----------4-----2-----------------4-----------4-----4--2--4--------2--------
A|--2--------2-----2-----2--2--------2-----4--0--4--2--------2-----2-----2--------------------4--0--
E|--------------------------------------------------------------------------------------------------

E|--------------------------------------------------------------------------------------------------
B|--------------------------------------------------------------------------------------------------
G|--------------2-----------------------------------------------2--------------------1--2-----------
D|--------4-----------4-----------4-----2-----------------4-----------4-----4--2--4--------2-----2--
A|--2--------2-----2-----2--2--------2-----4--0--4--2--------2-----2-----2--------------------4-----
E|--------------------------------------------------------------------------------------------------


E|--------------------------------------------------------------------------------------------------
B|--------2-----------0--------0--2--3--5--2--3--0--------2-----------0-----------------------------
G|--2--------2--1--------1--2-----------------------2--------2--1--------1-----------1--2-----------
D|--------------------------------------------------------------------------4--2--4--------2-----2--
A|--------------------------------------------------------------------------------------------4-----
E|--------------------------------------------------------------------------------------------------

E|--------------------------------------------------------------------------------------------------
B|--------2-----------0--------0--2--3--5-----2--3--5--2--3--0--2-----------------------------------
G|--2--------2--1--------1--2--------------------------------------2--4--1-----------1--2-----------
D|--------------------------------------------------------------------------4--2--4--------2--------
A|--------------------------------------------------------------------------------------------4--0--
E|--------------------------------------------------------------------------------------------------

E|--------------------------------------------------------------------------------------------------
B|--------------------------------------------------------------------------------------------------
G|--------------2-----------------------------------------------2--------------------1--2-----------
D|--------4-----------4-----------4-----2-----------------4-----------4-----4--2--4--------2--------
A|--2--------2-----2-----2--2--------2-----4--0--4--2--------2-----2-----2--------------------4--0--
E|--------------------------------------------------------------------------------------------------

E|--------------------------------------------------------------------------------------------------
B|--------------------------------------------------------------------------------------------------
G|--------------2-----------------------------------------------2--------------------1--2-----------
D|--------4-----------4-----------4-----2-----------------4-----------4-----4--2--4--------2-----2--
A|--2--------2-----2-----2--2--------2-----4--0--4--2--------2-----2-----2--------------------4-----
E|--------------------------------------------------------------------------------------------------

E|--------------------------------------------------------------------------------------------------
B|--------2-----------0--------0--2--3--5--2--3--0--------2-----------0-----------------------------
G|--2--------2--1--------1--2-----------------------2--------2--1--------1-----------1--2-----------
D|--------------------------------------------------------------------------4--2--4--------2-----2--
A|--------------------------------------------------------------------------------------------4-----
E|--------------------------------------------------------------------------------------------------

E|--------------------------------------------------------------------------------------------------
B|--------2-----------0--------0--2--3--5-----2--3--5--2--3--0--2-----------------------------------
G|--2--------2--1--------1--2--------------------------------------2--4--1-----------1--2-----------
D|--------------------------------------------------------------------------4--2--4--------2--------
A|--------------------------------------------------------------------------------------------4--0--
E|--------------------------------------------------------------------------------------------------

Paste any tab in acousterr's tab maker and we'll play it !!!
Now supports capo and sound effects for vibrato/pull-off/hammer/bends/mutes etc !!! Checkout help section
tabs and chords, guitar tabs, music contests, music covers, songsterr, reverbnation, renditions, tabulature, bollywood chords, ultimate guitar, yousician, guitar lessons, torrins, fender, gibson, acoustic guitar, electric guitar, youtube covers, gootar, guitar tuner, A-Z tabs, 911 tabs